Desi Chords:

0 comment(s) so far...have your say!

Aane Wala Pal Jaane Wala Hai : Tabs


qrcode for - Aane Wala Pal Jaane Wala Hai : TabsSong: Aane Wala Pal Jaane Wala Hai
Artist: Kishore Kumar
From:Golmaal (1979)


View:
{ Chords } - { Strum } - { Tabs } - { Lyrics } - { PDF } - { Videos }



Guitar Tabs:
Chorus:
E----------------------------------------------
A-7--------------------------------------------
D---4-6----------------------------------------
G------5h6-5h6-8p6p4-6s8-8p6-6p4---------------
B--------------------------------9s4-4-4s6-4-2-
e---------------------------------------------- X2


E-----------------------------------------------
A-----------------------7-----------------------
D-6-7--7-6-4-4-6-7-6-4----6-4-6-4--7-6-9-7-6----
G-----4-------------------------------------5-6-
B-----------------------------------------------
e-----------------------------------------------

Verse:

E------------------------------------
A-7-7-7p6-9-6h7----------------------
D--------------6-6-4-4-9-6p4---4-2---
G------------------------------------
B------------------------------------X2
e------------------------------------


E------------------------------------
A------------------------------------
D--------------------------------7-6-
G-444-6-8h9-8-6p4-666p4-4-6h8-64-----
B------------------------------------
e------------------------------------

E-----------------------------------------------
A-----------------------7-----------------------
D-6-7--7-6-4-4-6-7-6-4----6-4-6-4--7-6-9-7-6----
G-----4-------------------------------------5-6-
B-----------------------------------------------
e-----------------------------------------------


What do these symbols mean? Reading Tabs...
http://desichords.blogspot.com/2009/03/aane-wala-pal-jaane-wala-hai-3-tabs.html




Liked 'Aane Wala Pal Jaane Wala Hai : Tabs' enough to share / save?

Aane Wala Pal Jaane Wala Hai : Tabs

Comments: 0 comment(s)...have your say!

DesiChords Tip:

Tune your guitar before you start playing.^Top^


 


# Hosted for free on Blogspot.com / "Powered by Blogger." Get yours today at www.blogger.com
# The material collected and made available through these sites is exclusively intended for private study, research & to provide study material for musicians - in good faith. (Copyrights)
# This site uses cookies to offer you a better browsing experience. Kindly read the Terms of Service & Privacy policy and continue only if you agree.
# Copyrights, wherever applicable: IndianGuitarChords.Blogspot.Com (™ ©) / Arindam Sarkar © - MMVIII - MMXVI