Desi Chords:

0 comment(s) so far...have your say!

Ae Kash Ke Hum Hosh Mein Ab Aane Na Paayein : Tabs


qrcode for - Ae Kash Ke Hum Hosh Mein Ab Aane Na Paayein : TabsSong: Ae Kash Ke Hum Hosh Mein Ab Aane Na Paayein
Artist:Kumar Sanu
From:Kabhi Haan Kabhi Naa (1994)


View:
{ Chords } - { Strum } - { Tabs } - { Lyrics } - { PDF } - { Videos }



Guitar Tabs:
Chorus:
E---------------------------------------
A---------------------------------------
D---------------------------------------
G--------------------7-7-7----7-7-5-7-9-
B-5-5---8-5--5-8-6-5-------8------------
e-----5---------------------------------X2

E----------------------------------------------------
A----------------------------------------------------
D----------------------------------------------------
G------77----------------------------------------7-5-
B-6-65----5h6-6-8h10-10-10p8-------8p6-5h6h8-6-5-----
e----------------------------8-7-5-------------------

Verse:
E----------------------------------------------------
A----------------------------------------------------
D----------------------------------------------------
G-----------------------7--7--7----------------------
B----5----5-------8---8---8--5-----8-6-5-6-8---------
e-7-5--7-5-7-5-55----5---5--8---55-----------5-------X2

E----------------------------------------------------
A----------------------------------------------------
D----------------------------------------------------
G------77----------------------------------------7-5-
B-6-65----5h6-6-8h10-10-10p8-------8p6-5h6h8-6-5-----
e----------------------------8-7-5-------------------


What do these symbols mean? Reading Tabs...
http://desichords.blogspot.com/2009/04/ae-kash-ke-hum-hosh-mein-ab-aane-na.html




Liked 'Ae Kash Ke Hum Hosh Mein Ab Aane Na Paayein : Tabs' enough to share / save?

Ae Kash Ke Hum Hosh Mein Ab Aane Na Paayein : Tabs

Comments: 0 comment(s)...have your say!

DesiChords Tip:

Tune your guitar before you start playing.^Top^


 


# Hosted for free on Blogspot.com / "Powered by Blogger." Get yours today at www.blogger.com
# The material collected and made available through these sites is exclusively intended for private study, research & to provide study material for musicians - in good faith. (Copyrights)
# This site uses cookies to offer you a better browsing experience. Kindly read the Terms of Service & Privacy policy and continue only if you agree.
# Copyrights, wherever applicable: IndianGuitarChords.Blogspot.Com (™ ©) / Arindam Sarkar © - MMVIII - MMXVI