Desi Chords:

2 comment(s) so far...have your say!

Ae Mere Humsafar : Tabs


qrcode for - Ae Mere Humsafar : TabsSong:Ae Mere Humsafar
Artist:Udit Narayan
From: Qayamat Se Qayamat Tak (QSQT) (1988)


View:
{ Chords } - { Strum } - { Tabs } - { Lyrics } - { PDF } - { Videos }



Guitar Tabs:
Chorus:
E--------------------------------------------
A-7------------------------------------------
D---------7------7---------------------9p7p5-
G---4h5-4--4h5-4---4h555-7s9-7-5-7p5p4-------
B--------------------------------------------
e--------------------------------------------

E----------------------------------------------------
A-----------------------------------5h7---------h777-
D-4h555-7s9-9p7p5--4h555-7s9-9p7p5------4h5-5p4------
G----------------------------------------------------
B----------------------------------------------------
e----------------------------------------------------

Verse:
E----------------------------------------
A----------------------------------------
D-777----------------555-----7-----------
G-----5745-5h7-7p5p4-----754---4h5-------
B----5-----------------------------------
e---------------------------------------X2

E------------------------------------
A--------------7---------------------
D------------5------------h777-------
G-5s7-7977-54----4h5-5p4-------------
B------------------------------------
e------------------------------------


What do these symbols mean? Reading tabs...
http://desichords.blogspot.com/2009/04/ae-mere-humsafar-3-tabs.html




Liked 'Ae Mere Humsafar : Tabs' enough to share / save?

Ae Mere Humsafar : Tabs

Comments: 2 comment(s)...have your say!

Anamikasaid...

wot is 'h' in between d fret no.s ..!! ???

Arindam Sarkarsaid...

These are hammer ons...

DesiChords Tip:

Tune your guitar before you start playing.^Top^


 


# Hosted for free on Blogspot.com / "Powered by Blogger." Get yours today at www.blogger.com
# The material collected and made available through these sites is exclusively intended for private study, research & to provide study material for musicians - in good faith. (Copyrights)
# This site uses cookies to offer you a better browsing experience. Kindly read the Terms of Service & Privacy policy and continue only if you agree.
# Copyrights, wherever applicable: IndianGuitarChords.Blogspot.Com (™ ©) / Arindam Sarkar © - MMVIII - MMXVI