Desi Chords:

0 comment(s) so far...have your say!

Ajeeb Daastaan Hai Yeh : Tabs


qrcode for - Ajeeb Daastaan Hai Yeh : TabsSong: Ajeeb Daastaan Hai Yeh
Artist: Lata Mangeshkar
From:Dil Apna Aur Preet Parai (1960)


View:
{ Chords } - { Strum } - { Tabs } - { Lyrics } - { PDF } - { Videos }



Guitar Tabs:
Chorus:
E------------------------------------------------------
A------------------------------------------------------
D------------------------------------------------------
G------------------------------------------------------
B-----------(10)8-68(10)----------(10)8-66h8-----------
e-(10)8(10)8------------(10)8(10)8---------------------

E------------------------------------------------------
A------------------------------------------------------
D-------------------------------------------(10)-------
G-------------977h97-----------------99h(10)----79(10)-
B-(10)8(10)86------------------(10)8-------------------
e-------------------(10)8(10)8-------------------------

Verse:
E------------------------------------------------------
A------------------------------------------------------
D------------------------------------------------------
G-(10)-------------------------------------------------
B-----8(10)-(11)(10)(11)(8)(10)(11)--------------------
e------------------------------------------------------X2

E------------------------------------------------------
A------------------------------------------------------
D------------------------------------------------------
G-------------------------------(10)-------------------
B------------(11)(11)-----(10)8------------------------
e-(10)8(10)8---------(10)8-----------------------------

E------------------------------------------------------
A------------------------------------------------------
D------------------------------------------------------
G------------------------------------------------------
B------------------------------------------------------
e-(12)(12)p(11)-(11)(11)p(10)-(10)(10)h8---------------

E------------------------------------------------------
A------------------------------------------------------
D-------------------------------------(10)-------------
G--------------------------------9(10)----79(10)-------
B------(10)h(11)-----------(10)8-----------------------
e-88-----------(10)8(10)8------------------------------


What do these symbols mean? Reading Tabs...
http://desichords.blogspot.com/2009/04/ajeeb-daastaan-hai-yeh-3-tabs.html




Liked 'Ajeeb Daastaan Hai Yeh : Tabs' enough to share / save?

Ajeeb Daastaan Hai Yeh : Tabs

Comments: 0 comment(s)...have your say!

DesiChords Tip:

Tune your guitar before you start playing.^Top^


 


# Hosted for free on Blogspot.com / "Powered by Blogger." Get yours today at www.blogger.com
# The material collected and made available through these sites is exclusively intended for private study, research & to provide study material for musicians - in good faith. (Copyrights)
# This site uses cookies to offer you a better browsing experience. Kindly read the Terms of Service & Privacy policy and continue only if you agree.
# Copyrights, wherever applicable: IndianGuitarChords.Blogspot.Com (™ ©) / Arindam Sarkar © - MMVIII - MMXVI