Desi Chords:

0 comment(s) so far...have your say!

Akele Hain To Kya Gum Hai : Tabs


qrcode for - Akele Hain To Kya Gum Hai : TabsSong: Akele Hain To Kya Gum Hai
Artist: Udit Narayan, Alka Yagnik
From: Qayamat Se Qayamat Tak a.k.a. QSQT (1988)


View:
{ Chords } - { Strum } - { Tabs } - { Lyrics } - { PDF } - { Videos }



Guitar Tabs:
Chorus:
E----------------------------------------------------
A-2------------------------------------------------5-
D--244h5----------------------------4h54452-5h74452--
G-------44---4--4----------5-55-4p2------------------
B---------2h3----3-3h5-53-3--------------------------
e----------------------------------------------------

E----------------------------------------------------
A-5--5---------5--5-------2--------------------------
D--24-2-22242---24-2-2222--244h5---------------------
G-------------------------------44---4---------------
B---------------------------------2h3----------------
e----------------------------------------------------


Verse:
E---------------------------------------------------------
A---------------------------------------------------------
D-----------5------5---2h422-9542-2h422-22----------------
G-42424-4--2-24s542-2---------------------4h5-55-55-55-42-
B------3--------------------------------------------------
e---------------------------------------------------------

E---------------------------------------------------------
A----------------5-5--5---------5--5-------2--------------
D-4h54452-5h74452---24-2-22242---24-2-2222--244h5---------
G------------------------------------------------44---4---
B--------------------------------------------------2h3----
e---------------------------------------------------------


What do these symbols mean? Reading tabs...
http://desichords.blogspot.com/2009/04/akele-hain-to-kya-gum-hai-3-tabs.html




Liked 'Akele Hain To Kya Gum Hai : Tabs' enough to share / save?

Akele Hain To Kya Gum Hai : Tabs

Comments: 0 comment(s)...have your say!

DesiChords Tip:

Tune your guitar before you start playing.^Top^


 


# Hosted for free on Blogspot.com / "Powered by Blogger." Get yours today at www.blogger.com
# The material collected and made available through these sites is exclusively intended for private study, research & to provide study material for musicians - in good faith. (Copyrights)
# This site uses cookies to offer you a better browsing experience. Kindly read the Terms of Service & Privacy policy and continue only if you agree.
# Copyrights, wherever applicable: IndianGuitarChords.Blogspot.Com (™ ©) / Arindam Sarkar © - MMVIII - MMXVI