Desi Chords:

0 comment(s) so far...have your say!

Alvida Alvida (Metro) : Tabs


qrcode for - Alvida Alvida (Metro) : TabsSong: Alvida
Artist: Krishnakumar Kunnath, a.k.a. K.K.
From: Life In A... Metro (2007)


View:
{ Chords } - { Strum } - { Tabs } - { Lyrics } - { PDF } - { Videos }



Guitar Tabs:
Verse:
E-----------------------------------
A-477-47--------47-------7--7-------
D-------4476-4s2-6h76-4s2-44--------
G-----------------------------------
B-----------------------------------
e-----------------------------------X2

E------------------------------------
A-5-55s7-4h5-55s7-4h5-77--9h7-545s7--
D-----------------------46-----------
G------------------------------------
B------------------------------------
e------------------------------------

Chorus:
E-------------------------------------
A-------------------------------------
D------7-7--------7------7666-7--7--7-
G-4h6-4---46p4p6-4-44-464------64-64--
B-------------------------------------
e-------------------------------------X2

Bridge:
E--------------------------------------------------
A--------------------------------------------------
D----------------------6---------------------------
G-6p8886p8-8-6p88-8-6p8-5--------------------------
B------------------7-----4-766p7-6p777p966p7-777s9-
e--------------------------------------------------X2


What do these symbols mean? Reading Tabs...
http://desichords.blogspot.com/2009/04/alvida-alvida-metro-3-tabs.html




Liked 'Alvida Alvida (Metro) : Tabs' enough to share / save?

Alvida Alvida (Metro) : Tabs

Comments: 0 comment(s)...have your say!

DesiChords Tip:

Tune your guitar before you start playing.^Top^


 


# Hosted for free on Blogspot.com / "Powered by Blogger." Get yours today at www.blogger.com
# The material collected and made available through these sites is exclusively intended for private study, research & to provide study material for musicians - in good faith. (Copyrights)
# This site uses cookies to offer you a better browsing experience. Kindly read the Terms of Service & Privacy policy and continue only if you agree.
# Copyrights, wherever applicable: IndianGuitarChords.Blogspot.Com (™ ©) / Arindam Sarkar © - MMVIII - MMXVI