Desi Chords:

0 comment(s) so far...have your say!

Baanwara Mann : Tabs


qrcode for - Baanwara Mann : TabsSong: Baanwara Mann (also spelled: Bawra Mann, or Bavra Mann)
Artist: Swanand Kirkire, Shubha Mudgal
From: Hazaaron Khwaishein Aisi (2005)


View:
{ Chords } - { Strum } - { Tabs } - { Lyrics } - { PDF } - { Videos }



Guitar Tabs:
Chorus:
E---------------------------------------
A---------------------------------------
D---------------------------------------
G------------------------------87-------
B-9p79h(10)-9p79h(10)(10)--7h97---5h775-
e----------7-------------77-------------X2

Verse1:
E-----------------------------------------------------
A-----------------------------------------------------
D-----------------------------------------------------
G-----------------------------------------------------
B---------------------------9(10)9(10)9(10)9(10)s(12)-
e-(12)(12)(12)(12)(11)(11)97--------------------------

E--------------------------------------------------
A--------------------------------------------------
D--------------------------------------------------
G--------------------------------------------------
B---------------------------9(10)------------------
e-(12)(12)(12)(12)(11)(11)97-----9(11)h(12)(11)9s7-

E------------------------------------
A------------------------------------
D------------------------------------
G------------------------------------
B----------7779(10)s(12)(10)9--------
e-676766767--------------------------X2

E---------------------------------------------
A---------------------------------------------
D---------------------------------------------
G---------------------------------------------
B-7754h5h7777-754h5h7777---------------7------
e------------4----------454454-445445-4-4h5h7-
(back to chorus)

Verse 2:
E---------------------------------------------------
A---------------------------------------------------
D---------------------------------------------------
G---------------------------------------------------
B-7h9999-7h99(10)9(10)-9(10)9(10)9(10)-979(10)s(12)-
e---------------------------------------------------X2

E-----------------------------------------------------------
A-----------------------------------------------------------
D-----------------------------------------------------------
G-----------------------------------------------------------
B-7h9999-7h99(10)9(10)-9(10)9(10)-9(10)---------------------
e-------------------------------------9(11)(11)h(12)(11)9p7-

E------------------------------------
A------------------------------------
D------------------------------------
G------------------------------------
B----------7779(10)s(12)(10)9--------
e-676766767--------------------------X2

E---------------------------------------------
A---------------------------------------------
D---------------------------------------------
G---------------------------------------------
B-7754h5h7777-754h5h7777---------------7------
e------------4----------454454-445445-4-4h5h7-
(back to chorus)


What do these symbols mean? Reading Tabs...
http://desichords.blogspot.com/2009/04/baanwara-mann-3-tabs.html




Liked 'Baanwara Mann : Tabs' enough to share / save?

Baanwara Mann : Tabs

Comments: 0 comment(s)...have your say!

DesiChords Tip:

Tune your guitar before you start playing.^Top^


 


# Hosted for free on Blogspot.com / "Powered by Blogger." Get yours today at www.blogger.com
# The material collected and made available through these sites is exclusively intended for private study, research & to provide study material for musicians - in good faith. (Copyrights)
# This site uses cookies to offer you a better browsing experience. Kindly read the Terms of Service & Privacy policy and continue only if you agree.
# Copyrights, wherever applicable: IndianGuitarChords.Blogspot.Com (™ ©) / Arindam Sarkar © - MMVIII - MMXVI