Desi Chords:

0 comment(s) so far...have your say!

Baatein Kuchh Ankahee Si : Tabs


qrcode for - Baatein Kuchh Ankahee Si : TabsSong: Baatein Kuchh Ankahee Si
Artist: Suhail Kaul
From:Life In A... Metro (2008)


View:
{ Chords } - { Strum } - { Tabs } - { Lyrics } - { PDF } - { Videos }




Guitar Tabs:
Chorus:
E-------------------------------------------------
A-------------------------------------------------
D--------------755-5457------------------755-5457-
G-6h77-77644-44-----------7-6h77-77644-44---------
B----------------------575------------------------
e-------------------------------------------------

E---------------------------------
A---------------------------------
D---------------------------------
G----------------------7----------
B-5h77578-875-5h77575-5-5-5h77578-
e---------------------------------

E-----------------------------
A-----------------------------
D-----------------------------
G--------------7---------7h97-
B-875-5h77p5575-5h77p5575-----
e-----------------------------

Verse:
E----------------------------
A----------------------------
D----------------------------
G----------------------------
B---787---8h7p7-65h66-6666s7-
e-55---557-------------------

E-----------------------------
A-----------------------------
D-----------------------------
G---------------------755h7---
B---787---8h7p7-65h666--------
e-55---557--------------------

E-------------------------------
A-------------------------------
D-99979-------------------------
G-------------7666--------------
B------55h7575---------------75-
e------------------3h55-5p3-3--- (back to chorus)


What do these symbols mean? Reading Tabs...
http://desichords.blogspot.com/2009/04/baatein-kuchh-ankahee-si-3-tabs.html




Liked 'Baatein Kuchh Ankahee Si : Tabs' enough to share / save?

Baatein Kuchh Ankahee Si : Tabs

Comments: 0 comment(s)...have your say!

DesiChords Tip:

Tune your guitar before you start playing.^Top^


 


# Hosted for free on Blogspot.com / "Powered by Blogger." Get yours today at www.blogger.com
# The material collected and made available through these sites is exclusively intended for private study, research & to provide study material for musicians - in good faith. (Copyrights)
# This site uses cookies to offer you a better browsing experience. Kindly read the Terms of Service & Privacy policy and continue only if you agree.
# Copyrights, wherever applicable: IndianGuitarChords.Blogspot.Com (™ ©) / Arindam Sarkar © - MMVIII - MMXVI