Desi Chords:

0 comment(s) so far...have your say!

Chal Chale Apne Ghar (Woh Lamhe) : Tabs


qrcode for - Chal Chale Apne Ghar (Woh Lamhe) : TabsSong: Chal Chale
Artist: James
From: Woh Lamhe (2004)


View:
{ Chords } - { Strum } - { Tabs } - { Lyrics } - { PDF } - { Videos }



Guitar Tabs:
Chorus:
E------------------------------------------
A---7-7------------------7-----------------
D-64---67s9-6----------64-6997-646h7-7-----
G------------46---66p4----------------66s4-
B--------------4h5-------------------------
e------------------------------------------

E------------------------------------------
A---7-7------------------7-----------------
D-64---67s9-6----------64-6997-4s6-44s2----
G------------46---66p4---------------------
B--------------4h5-------------------------
e------------------------------------------

E---------------------
A---7-----------------
D-64-6997-646h7-7-----
G----------------66s4-
B---------------------
e---------------------

Verse1:
E---------------------------------------------
A---7-7--------------------7------------------
D-64---67s9-6------------64-6997-646h7-7------
G------------44h6----66p4----------------66s4-
B----------------4h5--------------------------
e---------------------------------------------

E---------------------
A---------------------
D----------------67s8-
G-6-----6s8-644h8-----
B--4p5-4--------------
e---------------------

E------------------------------------------
A---7--------------------7-----------------
D-64-6997-646h7-7------64-6997-646h7-7-----
G----------------66s4-----------------66s4-
B------------------------------------------
e------------------------------------------

Verse 2: similar to as verse 1

Verse 3: similar to as verse 1

Chorus : repeat


What do these symbols mean? Reading Tabs...
http://desichords.blogspot.com/2009/04/chal-chale-apne-ghar-woh-lamhe-3-tabs.html




Liked 'Chal Chale Apne Ghar (Woh Lamhe) : Tabs' enough to share / save?

Chal Chale Apne Ghar (Woh Lamhe) : Tabs

Comments: 0 comment(s)...have your say!

DesiChords Tip:

Tune your guitar before you start playing.^Top^


 


# Hosted for free on Blogspot.com / "Powered by Blogger." Get yours today at www.blogger.com
# The material collected and made available through these sites is exclusively intended for private study, research & to provide study material for musicians - in good faith. (Copyrights)
# This site uses cookies to offer you a better browsing experience. Kindly read the Terms of Service & Privacy policy and continue only if you agree.
# Copyrights, wherever applicable: IndianGuitarChords.Blogspot.Com (™ ©) / Arindam Sarkar © - MMVIII - MMXVI