Desi Chords:

2 comment(s) so far...have your say!

Chura Liya Hai : Tabs


qrcode for - Chura Liya Hai : TabsSong: Chura Liya Hai
Artist: Asha Bhosle, Md. Rafi
From: Yaadon Ki Baaraat (1973)


View:
{ Chords } - { Strum } - { Tabs } - { Lyrics } - { PDF } - { Videos }



Guitar Tabs:
Chorus:
E------------------------------
A---------------5--------------
D-77--777s97-555--77--777s976--
G---54--------------54---------
B------------------------------
e------------------------------X2

E---------------------------------------
A---------------------------------------
D-------9-------9------7--7--7---7-77---
G-7777s9--7777s9--6h76--64-64-644----54-
B---------------------------------------
e---------------------------------------

Verse:
E-------------------------------------
A-------------------------------------
D-------------------------------------
G-7----------7-----7---------7---7777-
B--5999-79754-4555--457779754-4h5-----
e------------------------------------- {loop}


What do these symbols mean? Reading tabs...
http://desichords.blogspot.com/2009/04/chura-liya-hai-3-tabs.html




Liked 'Chura Liya Hai : Tabs' enough to share / save?

Chura Liya Hai : Tabs

Comments: 2 comment(s)...have your say!

MUSIC CREATIONsaid...

useful blog
pls add more old hindi songs chord

Arindam Sarkarsaid...

Thank you. i will add many more asap.

DesiChords Tip:

Tune your guitar before you start playing.^Top^


 


# Hosted for free on Blogspot.com / "Powered by Blogger." Get yours today at www.blogger.com
# The material collected and made available through these sites is exclusively intended for private study, research & to provide study material for musicians - in good faith. (Copyrights)
# This site uses cookies to offer you a better browsing experience. Kindly read the Terms of Service & Privacy policy and continue only if you agree.
# Copyrights, wherever applicable: IndianGuitarChords.Blogspot.Com (™ ©) / Arindam Sarkar © - MMVIII - MMXVI