Desi Chords:

0 comment(s) so far...have your say!

Yaaron, Dosti, Badi Hi Haseen Hai : Tabs


qrcode for - Yaaron, Dosti, Badi Hi Haseen Hai : TabsSong: Yaaron
Artist: Krishnakumar Kunnath (K.K.)
From: RockFord (1999)


View:
{ Chords } - { Strum } - { Tabs } - { Lyrics } - { PDF } - { Videos }



Guitar Tabs:
Theme:
E--------------------------------------------------------
A--------------------------------------------------------
D-------------------(10)------------(10)--------(10)-----
G-(10)(10)------(10)----(10)(10)(10)----(10)(10)----(10)-
B---------8(10)8-----------------------------------------
e--------------------------------------------------------X 4

Chorus:
E--------------------------------------------------------------
A--------------------------------------------------------------
D--------------------------------------------------------------
G-(10)(10)------------------------------------------------(10)-
B---------8h(10)-(11)(11)----------------(10)(10)(11)(10)8-----
e---------------8--------8h(10)8h(13)(13)----------------------X 2

E-------------------------------------------
A-------------------------------------------
D-------------------------------------------
G-(10)(10)--------------------(10)h(12)(10)-
B---------8h(10)-(10)(10)8(10)--------------
e-------------------------------------------

E-------------------------------------------
A-------------------------------------------
D-------------------------------------------
G-(10)(10)--------------------5h7-----------
B---------8h(10)-(10)(10)8(10)--------------
e-------------------------------------------

E------------------------------------------------------
A------------------------------------------------------
D-------------------------------------------------(10)-
G-(10)(10)--------------------(10)h(12)(10)------8-----
B---------8h(10)-(10)(10)8(10)---------------(10)------
e-------------------------------------------8---------- (repeat theme)

Verse:
E-------------------------------------------------------------------
A-------------------------------------------------------------------
D-------------------------------------------------------------------
G-------------------------------------------------------------------
B----------------------------------------------------------(11)-----
e-(12)s(13)-(13)(13)(12)(10)(12)-(12)(12)(10)8(10)-(10)(10)8---(10)-


E---------------------------------------------------------------------
A---------------------------------------------------------------------
D---------------------------------------------------------------------
G---------------------------------------------------------------------
B---------------------------------------------------------------------
e-(12)s(13)-(13)(13)(12)(10)(12)-(12)(12)(10)8(10)-(10)(12)s(13)(13)8-

E-------------------------------------------
A-------------------------------------------
D-------------------------------------------
G----------(10)-------(10)------------------
B-(10)(10)8----8-(10)8----8(prolonged)------
e-------------------------------------8----- (back to chorus)


What do these symbols mean? Reading Tabs...
http://desichords.blogspot.com/2009/04/yaaron-dosti-bari-hi-haseen-hai-3-tabs.html




Liked 'Yaaron, Dosti, Badi Hi Haseen Hai : Tabs' enough to share / save?

Yaaron, Dosti, Badi Hi Haseen Hai : Tabs

Comments: 0 comment(s)...have your say!

DesiChords Tip:

Tune your guitar before you start playing.^Top^


 


# Hosted for free on Blogspot.com / "Powered by Blogger." Get yours today at www.blogger.com
# The material collected and made available through these sites is exclusively intended for private study, research & to provide study material for musicians - in good faith. (Copyrights)
# This site uses cookies to offer you a better browsing experience. Kindly read the Terms of Service & Privacy policy and continue only if you agree.
# Copyrights, wherever applicable: IndianGuitarChords.Blogspot.Com (™ ©) / Arindam Sarkar © - MMVIII - MMXVI