Desi Chords:

0 comment(s) so far...have your say!

Dhadkan Zara Ruk Gayi Hai : Tabs


qrcode for - Dhadkan Zara Ruk Gayi Hai : TabsSong: Dhadkan Zara Ruk Gayi Hai
Artist: Suresh Wadkar
From: Prahaar (1991)


View:
{ Chords } - { Strum } - { Tabs } - { Lyrics } - { PDF } - { Videos }



Note: Tab is in the key of C major while the song is in C# major. Just transpose one fret backwards for each note for the tab in the original key. Its easier to play in C major. The unique parts have been tabbed; just play the other parts as repeats of these.


Guitar Tabs:
Part 2,9:
E--------------------------
A--------------------------
D-23-----33-0-023----32----
G---0---0-----------0------
B----100---------100-------
e--------------------------X2

E------------------------------------------------
A------------------------------------------------
D------------------------0233-3------------------
G----------------002-----------022-222-----------
B-110-111-1-3-320----011--------------01h3--3101-
e----------0-------------------------------5-----

E--------------------------
A--------------------------
D-23-----33-0-023----32----
G---0---0-----------0------
B----100---------100-------
e--------------------------X2

Part 4,8:
E-----------------------------------------------
A-----------------------------------------------
D-----------------------------------------------
G-----------------------------------------------
B-202320-202320-2023202-323-32-323-32--323--323-
e--------------------------0------0-------0-----X2

E------------------------------------
A------------------------------------
D------------------------------------
G------------------------------------
B-----31---1---113-323---------------
e-3320--220-220---0------------------

Part 6:
E-----------------------------------------------
A-----------------------------------------------
D-----------------------------------------------
G-----------------------------------------------
B-86-665-86--8-886-8-88---------------------8---
e-----------5-----5----566p8-(10)(10)6-88865-65-

E----------------------------------------------------
A----------------------------------------------------
D----------------------------------------------------
G----------------------------------------------------
B----------------------------------(13)--------------
e-(12)p(13)(13)(12)(12)(13)(12)(10)----(12)p(13)(13)-

E---------------------------------------------------------
A---------------------------------------------------------
D---------------------------------------------------------
G---------------------------------------------------------
B-(13)(13)------------------------------------------------
e--------(10)p(12)(12)(12)(10)(10)(10)(10)--(12)p(13)(13)-


What do these symbols mean? Reading Tabs...
http://desichords.blogspot.com/2009/05/dhadkan-zara-ruk-gayi-hai-3-tabs.html




Liked 'Dhadkan Zara Ruk Gayi Hai : Tabs' enough to share / save?

Dhadkan Zara Ruk Gayi Hai : Tabs

Comments: 0 comment(s)...have your say!

DesiChords Tip:

Tune your guitar before you start playing.^Top^


 


# Hosted for free on Blogspot.com / "Powered by Blogger." Get yours today at www.blogger.com
# The material collected and made available through these sites is exclusively intended for private study, research & to provide study material for musicians - in good faith. (Copyrights)
# This site uses cookies to offer you a better browsing experience. Kindly read the Terms of Service & Privacy policy and continue only if you agree.
# Copyrights, wherever applicable: IndianGuitarChords.Blogspot.Com (™ ©) / Arindam Sarkar © - MMVIII - MMXVI