Desi Chords:

0 comment(s) so far...have your say!

Dil Chahta Hai (Dil Chahta Hai : Shankar Mahadevan) : Tabs


qrcode for - Dil Chahta Hai (Dil Chahta Hai : Shankar Mahadevan) : TabsSong:Dil Chahta Hai
Artist:Shankar Mahadevan (Shankar-Ehsaan-Loy)
From:Dil Chahta Hai (2001)


View:
{ Chords } - { Strum } - { Tabs } - { Lyrics } - { PDF } - { Videos }



Guitar Tabs:
E-----------------------------------------------------
B-----------------------------------------------------
G-----------------------------------------------------
D-----------------------------------------------------
A------1-3----3-3----------1-3---3-3--------1-3---3-3-
E-1-3-----------------1-3--------------1-3------------

E-----------------------------------------------------
B-----------------------------------------------------
G-----------------------------------------------------
D-----------------------------------------------------
A----------1--3-3-------------1--3-3------------------
E--1---3--------------1---3---------------------------

E-----------------------------------------------------
B-----------------------------------------------------
G-----------------------------------------------------
D------------------1--1--0--3-1--0--------------------
A-----------1--3-------------------3----------1-3-----
E--1---3-------------------------------1--3-----------

E-----------------------------------------------------
B-----------------------------------------------------
G--3---2------0--3---------3---3---2---0--------------
D----------3------------------------------------------
A-----------------------------------------------------
E-----------------------------------------------------

E------------------6--6----5-5-3--3-----5-------------
B--3--6--3----6-3-------------------6-6----8-8--------
G-----------------------------------------------------
D-----------------------------------------------------
A-----------------------------------------------------
E-----------------------------------------------------

E-----------------------3--3-1-1----------------------
B--3--6--3---6--3---3------------3-3--1----3-1-1------
G---------------------------------------3-------------
D-----------------------------------------------------
A-----------------------------------------------------
E-----------------------------------------------------


What do these symbols mean? Reading Tabs...
http://desichords.blogspot.com/2009/05/dil-chahta-hai-dil-chahta-hai-shankar.html




Liked 'Dil Chahta Hai (Dil Chahta Hai : Shankar Mahadevan) : Tabs' enough to share / save?

Dil Chahta Hai (Dil Chahta Hai : Shankar Mahadevan) : Tabs

Comments: 0 comment(s)...have your say!

DesiChords Tip:

Tune your guitar before you start playing.^Top^


 


# Hosted for free on Blogspot.com / "Powered by Blogger." Get yours today at www.blogger.com
# The material collected and made available through these sites is exclusively intended for private study, research & to provide study material for musicians - in good faith. (Copyrights)
# This site uses cookies to offer you a better browsing experience. Kindly read the Terms of Service & Privacy policy and continue only if you agree.
# Copyrights, wherever applicable: IndianGuitarChords.Blogspot.Com (™ ©) / Arindam Sarkar © - MMVIII - MMXVI