Desi Chords:

0 comment(s) so far...have your say!

Dil Kya Kare (Salaam-E-Ishq) : Tabs


qrcode for - Dil Kya Kare (Salaam-E-Ishq) : TabsSong: Dil Kya Kare
Artist: Adnan Sami
From:Salaam-E-Ishq (2007)


View:
{ Chords } - { Strum } - { Tabs } - { Lyrics } - { PDF } - { Videos }



Guitar Tabs:
.Theme:
E-3----------------3-----------
A------323-------------323-----
D---------0-----------------0--
G----0----------------0--------
B---3----------------3---------
e--3----------------3----------

Part: Silli silli tapti raaton mein...
E------------------------------------
A------------------------------------
D-5-555555-5457----------------------
G------------------------------------
B------------------------------------
e------------------------------------X3

E------------------------------------
A------------------------------------
D-----55s7-75------------------------
G-5h74-------------------------------
B------------------------------------
e------------------------------------

Part: Ho... aankhon aankhon mein
E-----------------------------------------------
A-----------------------------------------------
D-----------------------------------------5s75--
G-5s74-44-4h5-7s9-7-777777--5s74-44-4h5-4-------
B-----------------------------------------------
e-----------------------------------------------X2

E------------------------------------
A-77-----77--------------------------
D---45-7---4h5-----------------------
G-----4------------------------------
B------------------------------------
e------------------------------------(go to theme)

Part: Ho....main jo baithoon toh baitha rahoon der tak
E------------------------------------
A------------------------------------
D-7s9--------------------------------
G----475554-557s977----7-------------
B------------------7h88--------------
e------------------------------------X2

E-------------------------------------------------------
A-------------------------------------------------------
D-----------------------------------------7-----55h7-75-
G-777775-555457-777775-555457-777775-55545--5h74--------
B-------------------------------------------------------
e-------------------------------------------------------


What do these symbols mean? Reading Tabs...
http://desichords.blogspot.com/2009/05/dil-kya-kare-salaam-e-ishq-3-tabs.html




Liked 'Dil Kya Kare (Salaam-E-Ishq) : Tabs' enough to share / save?

Dil Kya Kare (Salaam-E-Ishq) : Tabs

Comments: 0 comment(s)...have your say!

DesiChords Tip:

Tune your guitar before you start playing.^Top^


 


# Hosted for free on Blogspot.com / "Powered by Blogger." Get yours today at www.blogger.com
# The material collected and made available through these sites is exclusively intended for private study, research & to provide study material for musicians - in good faith. (Copyrights)
# This site uses cookies to offer you a better browsing experience. Kindly read the Terms of Service & Privacy policy and continue only if you agree.
# Copyrights, wherever applicable: IndianGuitarChords.Blogspot.Com (™ ©) / Arindam Sarkar © - MMVIII - MMXVI