Desi Chords:

0 comment(s) so far...have your say!

Dil Se Re Dil Se Re (A. R. Rahman) : Tabs


qrcode for - Dil Se Re Dil Se Re (A. R. Rahman) : TabsSong: Dil Se Re
Artist: A. R. Rahman, Anuradha Sriram, Anupama
From: Dil Se (1998)


View:
{ Chords } - { Strum } - { Tabs } - { Lyrics } - { PDF } - { Videos }



Guitar Tabs:
Verses:
E-------------------------------------
A-------------------------------------
D-------------------------------------
G-------------------------------------
B-5-5-545-5-5-545-5-5-545-5-5-5-----7-
e--4-------4-------4-------4-4-44-54--

Chorus:
E------------------------------------
A------------------------------------
D------------------------------------
G------------------------------------
B-5---5-54-5---5-54-5----------------
e--45--4----45--4----45--5-7---------

E------------------------------------
A------------------------------------
D------------------------------------
G------------------------------------
B-------------------------9p7p5------
e-4-777-755-5555544-44545------------

E------------------------------------
A------------------------------------
D------------------------------------
G------------------------------------
B-------------9p7p5------------------
e-4-7-55-44545------4-7-55-5-7-------

Bridges (verses 3, 5):
{
E------------------------------------
A------------------------------------
D------------------------------------
G------------------------------------
B--------------------(10)(10)--------
e-(10)(10)99977-99777----------------

E------------------------------------
A------------------------------------
D------------------------------------
G---------999-97h9-------------------
B-(10)(10)---------------------------
e------------------------------------
}X2

E-------------------------------------
A-------------------------------------
D-------------------------------------
G-------------------------------------
B-5---5-54-5---5-54-5-----------------
e--45--4----45--4----45--5-7----------


What do these symbols mean? Reading Tabs...
http://desichords.blogspot.com/2009/05/dil-se-re-dil-se-re-r-rahman-3-tabs.html




Liked 'Dil Se Re Dil Se Re (A. R. Rahman) : Tabs' enough to share / save?

Dil Se Re Dil Se Re (A. R. Rahman) : Tabs

Comments: 0 comment(s)...have your say!

DesiChords Tip:

Tune your guitar before you start playing.^Top^


 


# Hosted for free on Blogspot.com / "Powered by Blogger." Get yours today at www.blogger.com
# The material collected and made available through these sites is exclusively intended for private study, research & to provide study material for musicians - in good faith. (Copyrights)
# This site uses cookies to offer you a better browsing experience. Kindly read the Terms of Service & Privacy policy and continue only if you agree.
# Copyrights, wherever applicable: IndianGuitarChords.Blogspot.Com (™ ©) / Arindam Sarkar © - MMVIII - MMXVI