Desi Chords:

0 comment(s) so far...have your say!

Do Dil Mil Rahe Hain (Pardes) : Tabs


qrcode for - Do Dil Mil Rahe Hain (Pardes) : TabsSong: Do Dil Mil Rahe Hain
Artist: Kumar Sanu
From: Pardes (1997)


View:
{ Chords } - { Strum } - { Tabs } - { Lyrics } - { PDF } - { Videos }



Guitar Tabs:
Verse 1, Outro:
E------------------------------------
A------------------------------------
D------------------------------------
G-7-78-------87-7-78--------87-------
B-----6-89868-------66-89868---------
e------------------------------------

E------------------------------------
A------------------------------------
D------------------------------------
G-77------8----87--------------------
B---6-8986-6--6----------------------
e------------6-----------------------

E------------------------------------
A------------------------------------
D------------------------------------
G-7-78-------87--77------8----87-----
B-----6-89868------6-8986-6--6-------
e---------------------------6--------

E-------------------------------------
A-------------------------------------
D-------------------------------------
G--------------------------77------8--
B----986-898--------986-898--6-8986-6-
e-666--------666-666------------------


E------------------------------------
A------------------------------------
D------------------------------------
G---8-7-78-------87-7-78--------87---
B--6------6-89868-------66-89868-----
e-6----------------------------------

Verse 2,3:

E----------------------------------------
A----------------------------------------
D----------------------------------------
G----------------------------------------
B---------86-------------------------88--
e-68(10)86--8(10)8-(10)s8s6--68(10)86--6-X2


E------------------------------------
A------------------------------------
D------------------------------------
G-----------8-------------8--87------
B-998-998-89-86-898-898-89-86--------
e------------------------------------X2


What do these symbols mean? Reading Tabs...
http://desichords.blogspot.com/2009/05/do-dil-mil-rahe-hain-pardes-3-tabs.html




Liked 'Do Dil Mil Rahe Hain (Pardes) : Tabs' enough to share / save?

Do Dil Mil Rahe Hain (Pardes) : Tabs

Comments: 0 comment(s)...have your say!

DesiChords Tip:

Tune your guitar before you start playing.^Top^


 


# Hosted for free on Blogspot.com / "Powered by Blogger." Get yours today at www.blogger.com
# The material collected and made available through these sites is exclusively intended for private study, research & to provide study material for musicians - in good faith. (Copyrights)
# This site uses cookies to offer you a better browsing experience. Kindly read the Terms of Service & Privacy policy and continue only if you agree.
# Copyrights, wherever applicable: IndianGuitarChords.Blogspot.Com (™ ©) / Arindam Sarkar © - MMVIII - MMXVI