Desi Chords:

0 comment(s) so far...have your say!

Dooba Dooba Rehta Hoon (Silk Route) : Tabs


qrcode for - Dooba Dooba Rehta Hoon (Silk Route) : TabsSong: Dooba Dooba Rehta Hoon
Artist: Silk Route
From:Boondein (Album - 1997)


View:
{ Chords } - { Strum } - { Tabs } - { Lyrics } - { PDF } - { Videos }



Guitar Tabs:
Verse 1:
E------------------------------------
A------------------------------------
D-55----------h5222-5----------------
G---24222h44p2-----2-----------------
B------------------------------------
e------------------------------------X2

E---------------------------------------
A--------5-----------5------------------
D-2-254-2-2-254-2-254-2-2-254-----------
G----------------------------22h4-4p2p0-
B---------------------------------------
e---------------------------------------

E------------------------------------
A------------------------------------
D------------------------------------
G-4-4-42-4p2p0-----------------------
B----3-------------------------------
e------------------------------------

Verse 2,3:

E------------------------------------
A------------------------------------
D---------------55-220h2-22----------
G---542p4--542p4-----------55--------
B-33-----33------------------2-22h3--
e------------------------------------X2

E---------------------------------------
A--------5-----------5------------------
D-2-254-2-2-254-2-254-2-2-254-----------
G----------------------------22h4-4p2p0-
B---------------------------------------
e---------------------------------------


What do these symbols mean? Reading Tabs...
http://desichords.blogspot.com/2009/05/dooba-dooba-rehta-hoon-silk-route-3.html




Liked 'Dooba Dooba Rehta Hoon (Silk Route) : Tabs' enough to share / save?

Dooba Dooba Rehta Hoon (Silk Route) : Tabs

Comments: 0 comment(s)...have your say!

DesiChords Tip:

Tune your guitar before you start playing.^Top^


 


# Hosted for free on Blogspot.com / "Powered by Blogger." Get yours today at www.blogger.com
# The material collected and made available through these sites is exclusively intended for private study, research & to provide study material for musicians - in good faith. (Copyrights)
# This site uses cookies to offer you a better browsing experience. Kindly read the Terms of Service & Privacy policy and continue only if you agree.
# Copyrights, wherever applicable: IndianGuitarChords.Blogspot.Com (™ ©) / Arindam Sarkar © - MMVIII - MMXVI