Desi Chords:

0 comment(s) so far...have your say!

Ek Ajnabi Hasina Se (Kishore) : Tabs


qrcode for - Ek Ajnabi Hasina Se (Kishore) : TabsSong: Ek Ajnabi Hasina Se
Artist: Kishore Kumar
From: Ajnabee (1974)


View:
{ Chords } - { Strum } - { Tabs } - { Lyrics } - { PDF } - { Videos }



Guitar Tabs:
Part 1 / Chorus:
E------------------------------------
A------------------------------------
D------------------------------------
G-5----------------5-----------------
B---8---8-------8----8---------------
e--5-5-5-56-5h65----5-5--------------X2

Verses:
{
E------------------------------------
A------------------------------------
D------------------------------------
G------------------------------------
B-------8s(10)-(10)(10)-----6h8-88---
e-865-86----------------8658---------

E------------------------------------
A------------------------------------
D------------------------------------
G------------------------------------
B-8-----------------8----------------
e--7-778-(10)p8p7h87-8p7-5s7-----(7)-
}X2

E------------------------------------
A------------------------------------
D------------------------------------
G------------------------------------
B-------------888---7-77h8-----------
e-8787555-7575----87-----------------


What do these symbols mean? Reading Tabs...
http://desichords.blogspot.com/2009/05/ek-ajnabi-hasina-se-kishore-3-tabs.html




Liked 'Ek Ajnabi Hasina Se (Kishore) : Tabs' enough to share / save?

Ek Ajnabi Hasina Se (Kishore) : Tabs

Comments: 0 comment(s)...have your say!

DesiChords Tip:

Tune your guitar before you start playing.^Top^


 


# Hosted for free on Blogspot.com / "Powered by Blogger." Get yours today at www.blogger.com
# The material collected and made available through these sites is exclusively intended for private study, research & to provide study material for musicians - in good faith. (Copyrights)
# This site uses cookies to offer you a better browsing experience. Kindly read the Terms of Service & Privacy policy and continue only if you agree.
# Copyrights, wherever applicable: IndianGuitarChords.Blogspot.Com (™ ©) / Arindam Sarkar © - MMVIII - MMXVI