Desi Chords:

0 comment(s) so far...have your say!

Ek Haseena Thi (Karz: Kishore Kumar - Theme) : Tabs


qrcode for - Ek Haseena Thi (Karz: Kishore Kumar - Theme) : TabsSong: Ek Haseena Thi
Artist: Kishore Kumar, Asha Bhonsle
From: Karz (1980)


View:
{ Chords } - { Strum } - { Tabs } - { Lyrics } - { PDF } - { Videos }



Guitar Tabs:
Theme:
e-------------------------------
B-7-5-7-8---7-5-7-8---7-5-7-8-5-
G-------------------------------
D-------------------------------
A-------------------------------
E-------------------------------

e---------------------------
B-4/5-5---7-4---4-5-7-6/7-5-
G-------6-------------------
D---------------------------
A---------------------------
E---------------------------

e--777-555-------------
B----------8-7-8-7-5-7-
G----------------------
D----------------------
A----------------------
E----------------------

Part 1:
e-------------7-10-10s12s10--7-7--
B--888-8-8-10---------------------
G---------------------------------
D---------------------------------
A---------------------------------
E---------------------------------

e-12-12-14-10-10-12-7-7-10----7-7-7-7--7--------
B--------------------------10------------10-9-8-
G-----------------------------------------------
D-----------------------------------------------
A-----------------------------------------------
E-----------------------------------------------

e-------------7-10-10s12s10--7-7---
B--888-8-8-10----------------------
G----------------------------------
D----------------------------------
A----------------------------------
E----------------------------------

e-12-12-14-10-10-12-7-7-10----7-7-7-7--
B--------------------------10----------
G--------------------------------------
D--------------------------------------
A--------------------------------------
E--------------------------------------

Part 2:
e-15-14-15-14-12-14-12-14-15-14-12-15-14-12-14-12---
B---------------------------------------------------
G---------------------------------------------------
D---------------------------------------------------
A---------------------------------------------------
E---------------------------------------------------

e-14-12-14-12-10-12-10-12-14-12-10-14-12-10-12-10---
B---------------------------------------------------
G---------------------------------------------------
D---------------------------------------------------
A---------------------------------------------------
E---------------------------------------------------

e-12-10-12-10-8-10-8-10-12-10-8-12-10-8-10-8--------
B---------------------------------------------------
G---------------------------------------------------
D---------------------------------------------------
A---------------------------------------------------
E---------------------------------------------------

Part 3:
e--7-77-7-7-7s8s7----7-8-7------
B-----------------10-------10-8-
G-------------------------------
D-------------------------------
A-------------------------------
E-------------------------------


What do these symbols mean? Reading Tabs...
http://desichords.blogspot.com/2009/05/ek-haseena-thi-karz-kishore-kumar-3.html




Liked 'Ek Haseena Thi (Karz: Kishore Kumar - Theme) : Tabs' enough to share / save?

Ek Haseena Thi (Karz: Kishore Kumar - Theme) : Tabs

Comments: 0 comment(s)...have your say!

DesiChords Tip:

Tune your guitar before you start playing.^Top^


 


# Hosted for free on Blogspot.com / "Powered by Blogger." Get yours today at www.blogger.com
# The material collected and made available through these sites is exclusively intended for private study, research & to provide study material for musicians - in good faith. (Copyrights)
# This site uses cookies to offer you a better browsing experience. Kindly read the Terms of Service & Privacy policy and continue only if you agree.
# Copyrights, wherever applicable: IndianGuitarChords.Blogspot.Com (™ ©) / Arindam Sarkar © - MMVIII - MMXVI