Desi Chords:

0 comment(s) so far...have your say!

Ghazab Ka Hai Din (QSQT) : Tabs


qrcode for - Ghazab Ka Hai Din (QSQT) : TabsSong: Ghazab Ka Hai Din
Artist: Udit Narayan, Alka Yagnik
From: Qayamat Se Qayamat Tak (QSQT) (1988)


View:
{ Chords } - { Strum } - { Tabs } - { Lyrics } - { PDF } - { Videos }


Guitar Tabs:
Basic theme for each part:
E------------------------------------
A------------------------------------
D------------------------------------
G------------------------------------
B----------------88h(10)-------------
e7-7(10)(10)88-77--------------------

E------------------------------------
A------------------------------------
D------------------------------------
G------------------------------------
B-----------------------88h(10)------
e--7-7(10)(10)h(12)8877--------------

E------------------------------------
A------------------------------------
D------------------------------------
G-9-999------------------------------
B------7-7777h8-7h8888---------------
e---------------------5h77p8---------

E------------------------------------
A------------------------------------
D------------------------------------
G------------------------------------
B---------8-888----------------------
e-(10)(10)-----5h7p5-----------------X3


What do these symbols mean? Reading Tabs...
http://desichords.blogspot.com/2009/05/ghazab-ka-hai-din-qsqt-3-tabs.html




Liked 'Ghazab Ka Hai Din (QSQT) : Tabs' enough to share / save?

Ghazab Ka Hai Din (QSQT) : Tabs

Comments: 0 comment(s)...have your say!

DesiChords Tip:

Tune your guitar before you start playing.^Top^


 


# Hosted for free on Blogspot.com / "Powered by Blogger." Get yours today at www.blogger.com
# The material collected and made available through these sites is exclusively intended for private study, research & to provide study material for musicians - in good faith. (Copyrights)
# This site uses cookies to offer you a better browsing experience. Kindly read the Terms of Service & Privacy policy and continue only if you agree.
# Copyrights, wherever applicable: IndianGuitarChords.Blogspot.Com (™ ©) / Arindam Sarkar © - MMVIII - MMXVI