Desi Chords:

0 comment(s) so far...have your say!

Honthon Se Chhoo Lo Tum (Jagjit Singh) : Tabs


qrcode for - Honthon Se Chhoo Lo Tum (Jagjit Singh) : TabsSong:Honthon Se Chhoo Lo Tum
Artist:Jagjit Singh
From: Misc. Ghazals


View:
{ Chords } - { Strum } - { Tabs } - { Lyrics } - { PDF } - { Videos }



Guitar Tabs:
Chorus:
E------------------------------------
A------------------------------------
D------------------------------------
G-7h888-8-87-78--8----88-------------
B--------6-----66-86-6---------------
e------------------------------------

E------------------------------------
A------------------------------------
D------------------------------------
G-----88-7h8-87-78--8----88----------
B-86-6------6-----66-86-6------------
e------------------------------------


Verses:
E------------------------------------
A------------------------------------
D------------------------------------
G--------------------------8-8-------
B-8---------8h(10)p8-8---86---68-----
e--56-665865----------566------------X2

E------------------------------------
A------------------------------------
D------------------------------------
G-7h888-8-87-78--8----88-------------
B--------6-----66-86-6---------------
e------------------------------------

E------------------------------------
A------------------------------------
D------------------------------------
G-----88-7h8-87-78--8----88----------
B-86-6------6-----66-86-6------------
e------------------------------------


What do these symbols mean? Reading Tabs...
http://desichords.blogspot.com/2009/05/honthon-se-chhoo-lo-tum-jagjit-singh-3.html




Liked 'Honthon Se Chhoo Lo Tum (Jagjit Singh) : Tabs' enough to share / save?

Honthon Se Chhoo Lo Tum (Jagjit Singh) : Tabs

Comments: 0 comment(s)...have your say!

DesiChords Tip:

Tune your guitar before you start playing.^Top^


 


# Hosted for free on Blogspot.com / "Powered by Blogger." Get yours today at www.blogger.com
# The material collected and made available through these sites is exclusively intended for private study, research & to provide study material for musicians - in good faith. (Copyrights)
# This site uses cookies to offer you a better browsing experience. Kindly read the Terms of Service & Privacy policy and continue only if you agree.
# Copyrights, wherever applicable: IndianGuitarChords.Blogspot.Com (™ ©) / Arindam Sarkar © - MMVIII - MMXVI