Desi Chords:

0 comment(s) so far...have your say!

Hum Bewafa Harghiz Na The (Shalimar) : Tabs


qrcode for - Hum Bewafa Harghiz Na The (Shalimar) : TabsSong:Hum Bewafa Harghiz Na The
Artist:Kishore Kumar
From:Shalimar (1978)


View:
{ Chords } - { Strum } - { Tabs } - { Lyrics } - { PDF } - { Videos }



Guitar Tabs:
Chorus:
e---------------------------------------
B--------------0---------0---1---3--1---
G---4---2---0---------------------------

e---------------------------------------
B---1---3--3-3/5-----5-6--1---5--3------
G---------------------------------------

e---------------------------------------
B--------------0---------0-0---1---3--1-
G---4---2---0---------------------------

e-----------------------------------
B---1---3--3-3/5-----5-6--1---5--3--
G-----------------------------------

e---------3--3-3-3-3-3----3----3--0-
B----3-3-----------------3--3-------
G-----------------------------------

e-------1--1--1---1------1-1--1---3-
B---1-1-----------------------------
G-----------------------------------


Verse:
e---------3--3-3-3-3-3----3----3--0-
B----3-3-----------------3--3-------
G-----------------------------------

e-------1--1--1---1------1-1--1---3-
B---1-1-----------------------------
G-----------------------------------

e-------------------------------------
B--------------0---------0---1---3--1-
G---4---2---0-------------------------

e-------------------------------------
B---1---3--3-3/5-----5-6--1---5--3----
G-------------------------------------


What do these symbols mean? Reading Tabs...
http://desichords.blogspot.com/2009/05/hum-bewafa-harghiz-na-shalimar-3-tabs.html




Liked 'Hum Bewafa Harghiz Na The (Shalimar) : Tabs' enough to share / save?

Hum Bewafa Harghiz Na The (Shalimar) : Tabs

Comments: 0 comment(s)...have your say!

DesiChords Tip:

Tune your guitar before you start playing.^Top^


 


# Hosted for free on Blogspot.com / "Powered by Blogger." Get yours today at www.blogger.com
# The material collected and made available through these sites is exclusively intended for private study, research & to provide study material for musicians - in good faith. (Copyrights)
# This site uses cookies to offer you a better browsing experience. Kindly read the Terms of Service & Privacy policy and continue only if you agree.
# Copyrights, wherever applicable: IndianGuitarChords.Blogspot.Com (™ ©) / Arindam Sarkar © - MMVIII - MMXVI