Desi Chords:

0 comment(s) so far...have your say!

Ik Pyaar Ka Naghma Hai (Mukesh, Jagjit Singh) : Tabs


qrcode for - Ik Pyaar Ka Naghma Hai (Mukesh, Jagjit Singh) : TabsSong:Ik Pyaar Ka Naghma Hai
Artist: Mukesh (presently, also Jagjit Singh)
From: Shor (1972)


View:
{ Chords } - { Strum } - { Tabs } - { Lyrics } - { PDF } - { Videos }



Guitar Tabs:
e-------------------------------------------
B-------------------------------------------
G------------0-----------------------0------
D-----0--2-3---3---2-----0---2-2---3---3--2-
A---3------------------3--------------------
E-------------------------------------------

e------------------------------
B--------0---0-----------------
G-----0--------2---0---0---2---
D-2-3----------------3---------
A------------------------------
E------------------------------

e------------------------------
B------------------------------
G---0-0-----0------------------
D--------3------3--2--0--------
A-------------------------3----
E------------------------------


What do these symbols mean? Reading Tabs...
http://desichords.blogspot.com/2009/05/ik-pyaar-ka-naghma-hai-mukesh-jagjit.html




Liked 'Ik Pyaar Ka Naghma Hai (Mukesh, Jagjit Singh) : Tabs' enough to share / save?

Ik Pyaar Ka Naghma Hai (Mukesh, Jagjit Singh) : Tabs

Comments: 0 comment(s)...have your say!

DesiChords Tip:

Tune your guitar before you start playing.^Top^


 


# Hosted for free on Blogspot.com / "Powered by Blogger." Get yours today at www.blogger.com
# The material collected and made available through these sites is exclusively intended for private study, research & to provide study material for musicians - in good faith. (Copyrights)
# This site uses cookies to offer you a better browsing experience. Kindly read the Terms of Service & Privacy policy and continue only if you agree.
# Copyrights, wherever applicable: IndianGuitarChords.Blogspot.Com (™ ©) / Arindam Sarkar © - MMVIII - MMXVI