Desi Chords:

0 comment(s) so far...have your say!

In Dino, Dil Mera (Life in a... Metro) : Tabs


qrcode for - In Dino, Dil Mera (Life in a... Metro) : TabsSong:In Dino, Dil Mera
Artist: Soham Chakraborty
From: Life...In A Metro (2007)


View:
{ Chords } - { Strum } - { Tabs } - { Lyrics } - { PDF } - { Videos }



Guitar Tabs:
Chorus:
E------------------------------------------
A------------------------------------------
D------------------------------------------
G-----5-----5-----5-----5-------5-------5--
B-5365--5365--5365--5365---65353---65353-3-
e-------------------------3-------3--------
{
E------------------------------------
A------------------------------------
D------------------------------------
G-545-7p5p44-45--545--7p5p4-445------
B----5---------3----5----------------
e------------------------------------

E------------------------------------
A------------------------------------
D-----5------------------------------
G-5454-54---545--7p5p4-445-----------
B--------3-----5---------------------
e------------------------------------
}X2

Verses:
E------------------------------------
A------------------------------------
D------------------------------------
G------5-5-------------------------5-
B-53653---566--------3-3p5p65-3h5-3--
e------------3-33-2h3----------------X2


What do these symbols mean? Reading Tabs...
http://desichords.blogspot.com/2009/05/in-dino-dil-mera-life-in-metro-3-tabs.html




Liked 'In Dino, Dil Mera (Life in a... Metro) : Tabs' enough to share / save?

In Dino, Dil Mera (Life in a... Metro) : Tabs

Comments: 0 comment(s)...have your say!

DesiChords Tip:

Tune your guitar before you start playing.^Top^


 


# Hosted for free on Blogspot.com / "Powered by Blogger." Get yours today at www.blogger.com
# The material collected and made available through these sites is exclusively intended for private study, research & to provide study material for musicians - in good faith. (Copyrights)
# This site uses cookies to offer you a better browsing experience. Kindly read the Terms of Service & Privacy policy and continue only if you agree.
# Copyrights, wherever applicable: IndianGuitarChords.Blogspot.Com (™ ©) / Arindam Sarkar © - MMVIII - MMXVI