Desi Chords:

0 comment(s) so far...have your say!

Jaane Kyon (Dil Chahta Hai) : Tabs


qrcode for - Jaane Kyon (Dil Chahta Hai) : TabsSong: Jaane Kyon Log Pyar Karte Hain
Artist: Udit Narayan Jha, Alka Yagnik
From: Dil Chahta Hai (2001)


View:
{ Chords } - { Strum } - { Tabs } - { Lyrics } - { PDF } - { Videos }



Guitar Tabs:
Chorus:
E------------------------------------
A------------------------------------
D------------------------------------
G------------------------------------
B--------7---------7-----------------
e-4577544-4-4577544-4--445-7-754-----

E------------------------------------
A------------------------------------
D------------------------------------
G------------------------------------
B------7--545------------------------
e-445-4-4----------------------------

Verse1:
E------------------------------------
A------------------------------------
D------------------------------------
G------------------------------------
B----------7-----------7-------------
e-4577554-5-4-4577554-5-4------------

E------------------------------------
A------------------------------------
D------------------------------------
G------------------------------------
B---(10)(10)--(10)------(10)7--------
e-97--------79-----(10)9-------------X2

Rest same as chorus


What do these symbols mean? Reading Tabs...
http://desichords.blogspot.com/2009/05/jaane-kyon-dil-chahta-hai-3-tabs.html




Liked 'Jaane Kyon (Dil Chahta Hai) : Tabs' enough to share / save?

Jaane Kyon (Dil Chahta Hai) : Tabs

Comments: 0 comment(s)...have your say!

DesiChords Tip:

Tune your guitar before you start playing.^Top^


 


# Hosted for free on Blogspot.com / "Powered by Blogger." Get yours today at www.blogger.com
# The material collected and made available through these sites is exclusively intended for private study, research & to provide study material for musicians - in good faith. (Copyrights)
# This site uses cookies to offer you a better browsing experience. Kindly read the Terms of Service & Privacy policy and continue only if you agree.
# Copyrights, wherever applicable: IndianGuitarChords.Blogspot.Com (™ ©) / Arindam Sarkar © - MMVIII - MMXVI