Desi Chords:

0 comment(s) so far...have your say!

Jab Koi Baat Bigad Jaaye (Jurm : Kumar Sanu, Sadhna Sargam) : Tabs


qrcode for - Jab Koi Baat Bigad Jaaye (Jurm  : Kumar Sanu, Sadhna Sargam) : TabsSong:Jab Koi Baat Bigad Jaaye
Artist:Kumar Sanu, Sadhna Sargam
From: Jurm (1990)


View:
{ Chords } - { Strum } - { Tabs } - { Lyrics } - { PDF } - { Videos }



Guitar Tabs:
Chorus:
e-----------5--5-3---5----3---3-5-3-
B--6-6-6-6---------6--------6-------
G-----------------------------------

e------------3-5-3--------------------
B-6--3---3-6--------6-3-------3-6-3h6-
G--------------------------5-5--------

Verse:
e--8-7-8-8-7-8-8-7-8--8-7-8-8-13-10-8-6--6-10-10-
B------------------------------------------------
G------------------------------------------------

e-10-10-10-11-11-10-10-8---8---------8-6-5-5-
B--------------------------------8-8-8-------
G--------------------------------------------


What do these symbols mean? Reading Tabs...
http://desichords.blogspot.com/2009/05/jab-koi-baat-bigad-jaaye-jurm-kumar.html




Liked 'Jab Koi Baat Bigad Jaaye (Jurm : Kumar Sanu, Sadhna Sargam) : Tabs' enough to share / save?

Jab Koi Baat Bigad Jaaye (Jurm : Kumar Sanu, Sadhna Sargam) : Tabs

Comments: 0 comment(s)...have your say!

DesiChords Tip:

Tune your guitar before you start playing.^Top^


 


# Hosted for free on Blogspot.com / "Powered by Blogger." Get yours today at www.blogger.com
# The material collected and made available through these sites is exclusively intended for private study, research & to provide study material for musicians - in good faith. (Copyrights)
# This site uses cookies to offer you a better browsing experience. Kindly read the Terms of Service & Privacy policy and continue only if you agree.
# Copyrights, wherever applicable: IndianGuitarChords.Blogspot.Com (™ ©) / Arindam Sarkar © - MMVIII - MMXVI