Desi Chords:

0 comment(s) so far...have your say!

Kabhi Alvida Na Kehna (Kishore Kumar) : Tabs


qrcode for - Kabhi Alvida Na Kehna (Kishore Kumar) : TabsSong: Kabhi Alvida Na Kehna (Old)
Artist: Kishore Kumar
From: Chalte Chalte(1976)


View:
{ Chords } - { Strum } - { Tabs } - { Lyrics } - { PDF } - { Videos }



Guitar Tabs:
Chorus:
e---------------------------------------
B--------------------------2--2---2---2-
G-------2-2-------1--24-2-----------4---
D-4--4-------4--4-----------------------
A---------------------------------------
E---------------------------------------

e-----------------------------
B-----------------------------
G-----1---2--2--2--1----------
D-4-------------------4--4--2-
A-----------------------------
E-----------------------------

e-----------------------------------
B-----------------------------------
G-------2--2--4--1----------2-1-----
D------------------4--4--4-------4--
A-4--4------------------------------
E-----------------------------------

Verse:
e------------------------------
B------2---------------2-------
G-2--2------4--2-2--2--------4-
D------------------------------
A------------------------------
E------------------------------

e------------------
B------------------
G----1--2-2--2-2-2-
D-4----------------
A------------------
E------------------

Bridge:
e--------------------------------------------
B-------------------------------2------------
G----1----2--2-2-2--------1---2----4--4--441-
D-4-4--4-----------4-4--4--------------------
A--------------------------------------------
E--------------------------------------------

e-----------------------------------------
B---2-----2---------------------3--2--2---
G-4---4-4---4--4-4-1---1---2--4-----------
D-----------------------------------------
A-----------------------------------------
E-----------------------------------------

e------0--------------------------------------
B-2--2---3-2--3-------------------------------
G---------------4--2---1--2-----1-------------
D--------------------4------224---2--4--4--4--
A---------------------------------------------
E---------------------------------------------


What do these symbols mean? Reading tabs...
http://desichords.blogspot.com/2009/05/kabhi-alvida-na-kehna-kishore-kumar-3.html




Liked 'Kabhi Alvida Na Kehna (Kishore Kumar) : Tabs' enough to share / save?

Kabhi Alvida Na Kehna (Kishore Kumar) : Tabs

Comments: 0 comment(s)...have your say!

DesiChords Tip:

Tune your guitar before you start playing.^Top^


 


# Hosted for free on Blogspot.com / "Powered by Blogger." Get yours today at www.blogger.com
# The material collected and made available through these sites is exclusively intended for private study, research & to provide study material for musicians - in good faith. (Copyrights)
# This site uses cookies to offer you a better browsing experience. Kindly read the Terms of Service & Privacy policy and continue only if you agree.
# Copyrights, wherever applicable: IndianGuitarChords.Blogspot.Com (™ ©) / Arindam Sarkar © - MMVIII - MMXVI