Desi Chords:

0 comment(s) so far...have your say!

Kabhi Kabhi Aditi Zindagi (JTYJN) : Tabs


qrcode for - Kabhi Kabhi Aditi Zindagi (JTYJN) : TabsSong: Kabhi Kabhi Aditi Zindagi
Artist: Rashid Ali
From:Jaane Tu...Ya Jaane Na (2008)


View:
{ Chords } - { Strum } - { Tabs } - { Lyrics } - { PDF } - { Videos }



Guitar Tabs:
Verse:
E------------------------------------
A------------------------------------
D-5----------------------------------
G--3---5--5--5-----55535-------------
B---3-3-33-33--3464------------------
e------------------------------------X2

E------------------------------------------
A--------55--55---666----------------------
D------55--55--55----5-77553-3-335s7-77755-
G-33322------------------------------------
B------------------------------------------
e------------------------------------------

E------------------------------------
A-5---5---5--------------------------
D--55--55--555-----------------------
G------------------------------------
B------------------------------------
e------------------------------------

Chorus:
E------------------------------------
A------------------------------------
D------------------------------------
G----888777-578-777-5h7--------------
B-666--------------------------------
e------------------------------------X2

E------------------------------------
A------------------------------------
D------------------------------------
G----------------5s7-----------------
B--66-66-66-66-43----346--6--6--6--6-
e-3--3--3--3------------33-33-33-33--

E------------------------------------
A------------------------------------
D------------------------------------
G-----------------5-------5s7--------
B-4-444-34777-4444-3h44-43-----------
e------------------------------------


What do these symbols mean? Reading Tabs...
http://desichords.blogspot.com/2009/05/kabhi-kabhi-aditi-zindagi-jtyjn-3-tabs.html




Liked 'Kabhi Kabhi Aditi Zindagi (JTYJN) : Tabs' enough to share / save?

Kabhi Kabhi Aditi Zindagi (JTYJN) : Tabs

Comments: 0 comment(s)...have your say!

DesiChords Tip:

Tune your guitar before you start playing.^Top^


 


# Hosted for free on Blogspot.com / "Powered by Blogger." Get yours today at www.blogger.com
# The material collected and made available through these sites is exclusively intended for private study, research & to provide study material for musicians - in good faith. (Copyrights)
# This site uses cookies to offer you a better browsing experience. Kindly read the Terms of Service & Privacy policy and continue only if you agree.
# Copyrights, wherever applicable: IndianGuitarChords.Blogspot.Com (™ ©) / Arindam Sarkar © - MMVIII - MMXVI