Desi Chords:

0 comment(s) so far...have your say!

Kahin Deep Jale Kahin Dil (Lata M, Hemanta Kr) : Tabs


qrcode for - Kahin Deep Jale Kahin Dil (Lata M, Hemanta Kr) : TabsSong:Kahin Deep Jale Kahin Dil
Artist:Lata Mangeshkar, (music: Hemanta Kumar Mukhopadhyay)
From:Bees Saal Baad (1962)


View:
{ Chords } - { Strum } - { Tabs } - { Lyrics } - { PDF } - { Videos }



Guitar Tabs:
Basic Theme:
E------------------------------------
A------------------------------------
D-(10)------------------(10)(10)(10)-
G----8------(10)(10)78---------------
B-----(10)88-------------------------
e------------------------------------

E------------------------------------
A------------------------------------
D-(10)(10)---------------------------
G---------888------------------9-9---
B------------7(10)-------(10)-7-7----
e-----------------7h888-8------------


What do these symbols mean? Reading Tabs...
http://desichords.blogspot.com/2009/05/kahin-deep-jale-kahin-dil-lata-m.html




Liked 'Kahin Deep Jale Kahin Dil (Lata M, Hemanta Kr) : Tabs' enough to share / save?

Kahin Deep Jale Kahin Dil (Lata M, Hemanta Kr) : Tabs

Comments: 0 comment(s)...have your say!

DesiChords Tip:

Tune your guitar before you start playing.^Top^


 


# Hosted for free on Blogspot.com / "Powered by Blogger." Get yours today at www.blogger.com
# The material collected and made available through these sites is exclusively intended for private study, research & to provide study material for musicians - in good faith. (Copyrights)
# This site uses cookies to offer you a better browsing experience. Kindly read the Terms of Service & Privacy policy and continue only if you agree.
# Copyrights, wherever applicable: IndianGuitarChords.Blogspot.Com (™ ©) / Arindam Sarkar © - MMVIII - MMXVI