Desi Chords:

0 comment(s) so far...have your say!

Kahin To Hogi Woh (JTYJN) : Tabs


qrcode for - Kahin To Hogi Woh (JTYJN) : TabsSong: Kahin To Hogi Woh
Artist: Rashid Ali, Vasundhara Das
From: Jaane Tu...Ya Jaane Na (2008)


View:
{ Chords } - { Strum } - { Tabs } - { Lyrics } - { PDF } - { Videos }



Guitar Tabs:
Verse:
E------------------------------------
A------------------------------7s9---
D-7----------------------777-7-------
G--466-466-4-4h66s7-76644-----4------
B-----------5------------------------
e------------------------------------X2

E-57------------57----5-7-57-----------------
A---45-7---44s5---45-5-4----457-754----------
D-------2s4--------------------4---4455777s9-
G--------------------------------------------
B--------------------------------------------
e--------------------------------------------

Chorus:
E-------------------------
A-7-----------------------
D--47--744-7s97h9---------
G----46----------6-76767--
B-----------------------5-
e-------------------------

E------------------------------------
A-------------------777--------------
D------------74--------6697----------
G-4h644-46466--442s4-----------------
B------------------------------------
e------------------------------------

Bridge:
E----------------------
A----------------------
D----777-7--7s9--------
G-644------4-----------
B----------------------
e----------------------X4


What do these symbols mean? Reading Tabs...
http://desichords.blogspot.com/2009/05/kahin-to-hogi-woh-jtyjn-3-tabs.html




Liked 'Kahin To Hogi Woh (JTYJN) : Tabs' enough to share / save?

Kahin To Hogi Woh (JTYJN) : Tabs

Comments: 0 comment(s)...have your say!

DesiChords Tip:

Tune your guitar before you start playing.^Top^


 


# Hosted for free on Blogspot.com / "Powered by Blogger." Get yours today at www.blogger.com
# The material collected and made available through these sites is exclusively intended for private study, research & to provide study material for musicians - in good faith. (Copyrights)
# This site uses cookies to offer you a better browsing experience. Kindly read the Terms of Service & Privacy policy and continue only if you agree.
# Copyrights, wherever applicable: IndianGuitarChords.Blogspot.Com (™ ©) / Arindam Sarkar © - MMVIII - MMXVI