Desi Chords:

0 comment(s) so far...have your say!

Lambi Judai Char Dinoka (Hero : Reshma) : Tabs


qrcode for - Lambi Judai Char Dinoka (Hero : Reshma) : TabsSong: Lambi Judai
Artist: Reshma
From: Hero(1983)


View:
{ Chords } - { Strum } - { Tabs } - { Lyrics } - { PDF } - { Videos }



Guitar Tabs:
Verse:
E------------------------------------
A------------------------------------
D------------------------------------
G-----------------------------55-5---
B-58--------------8--535-66-53-------
e--77-8888-7578-57-5----3------------

E------------------------------------
A------------------------------------
D------------------------------------
G------------------------------------
B------------(12)P(10)p8-88---8-5----
e-77778-(10)8--------------7h8-------

E------------------------------------
A------------------------------------
D------------------------------------
G--7---7p55----5---------------------
B-5-58------555-5----(10)p8878-55----
e-----------------8p7----------------

E------------------------------------
A------------------------------------
D------------------------------------
G--75-7h5-----7p5-5------------------
B-5-------558------------------------
e------------------------------------

Interlude:
<------X2------>
E-|--(lick1)------|-------------|----------
A-|---------------|-------------|----------
D-|7----------7--7|---7---------|--repeat--
G-|----------5-54-|-44----------|--lick1---
B-|-5-h75-h75-----|----554-----7|----------
e-|---------------|--------8875-|----------


What do these symbols mean? Reading Tabs...
http://desichords.blogspot.com/2009/05/lambi-judai-char-dinoka-bari-lambi.html




Liked 'Lambi Judai Char Dinoka (Hero : Reshma) : Tabs' enough to share / save?

Lambi Judai Char Dinoka (Hero : Reshma) : Tabs

Comments: 0 comment(s)...have your say!

DesiChords Tip:

Tune your guitar before you start playing.^Top^


 


# Hosted for free on Blogspot.com / "Powered by Blogger." Get yours today at www.blogger.com
# The material collected and made available through these sites is exclusively intended for private study, research & to provide study material for musicians - in good faith. (Copyrights)
# This site uses cookies to offer you a better browsing experience. Kindly read the Terms of Service & Privacy policy and continue only if you agree.
# Copyrights, wherever applicable: IndianGuitarChords.Blogspot.Com (™ ©) / Arindam Sarkar © - MMVIII - MMXVI