Desi Chords:

0 comment(s) so far...have your say!

Lamha Lamha Doorie (Gangster) : Tabs


qrcode for - Lamha Lamha Doorie (Gangster) : TabsSong: Lamha Lamha
Artist:Abhijeet, Sunidhi Chauhan
From: Gangster (2006)


View:
{ Chords } - { Strum } - { Tabs } - { Lyrics } - { PDF } - { Videos }



Guitar Tabs:
e-----------0------------------
B-1-0-1-3-----1-0--------------
G-------------------2-----2--0-
D----------------------3-------

e------------------------------
B-1-p0-------------------------
G-------0-0-0-0-0-0-0-----2-2--
D-----------------------3------

e------------------------------
B------------------------------
G-2-2-2-h3-2-0-----------0--0--
D----------------3-2--0--------

e------------------------------
B-1-p0-------------------------
G-------0-0-0-0-0-0-0-----2-2--
D-----------------------3------

e------------------------------
B------------------------------
G-2-2-2-h3-2-0-----------0--0--
D----------------3-2--0--------

e-0-0-0-0-3-0-------0----------
B--------------3--1-----3------
G------------------------------
D------------------------------

e------------------------------
B------------------------------
G-2-2-2-h3-2-0-----------0--0--
D----------------3-2--0--------

e-----------0------------------
B-1-0-1-3-----1-0--------------
G-------------------2-----2--0-
D----------------------3-------

e-----8-8-7-8-7-8-10-8-7-h10---
B--5---------------------------

e-5-7-8-7-5h10-5--5-7-8-7-5-5--
B------------------------------


Verse 1:
e-----1-1-0--------------------
B---------------3-3-3-1--------
G-0----------------------------
D------------------------------

e-----3-3-1--------0-1---------
B-------------3-3------3-1-----
G-0----------------------------
D------------------------------

e-----1-1-0--------------------
B---------------3-3-3-1--------
G-0----------------------------
D------------------------------

e-----3-3-1--------0-1---------
B-------------3-3------3-1-----
G-0----------------------------
D------------------------------

e------------------------------
B-1-p0-------------------------
G-------0-0-0-0-0-0-0-----2-2--
D-----------------------3------

e------------------------------
B------------------------------
G-2-2-2-h3-2-0-----------0--0--
D----------------3-2--0--------

e-----------0------------------
B-1-0-1-3-----1-0--------------
G-------------------2-----2--0-
D----------------------3-------


What do these symbols mean? Reading Tabs...
http://desichords.blogspot.com/2009/05/lamha-lamha-doorie-gangster-3-tabs.html




Liked 'Lamha Lamha Doorie (Gangster) : Tabs' enough to share / save?

Lamha Lamha Doorie (Gangster) : Tabs

Comments: 0 comment(s)...have your say!

DesiChords Tip:

Tune your guitar before you start playing.^Top^


 


# Hosted for free on Blogspot.com / "Powered by Blogger." Get yours today at www.blogger.com
# The material collected and made available through these sites is exclusively intended for private study, research & to provide study material for musicians - in good faith. (Copyrights)
# This site uses cookies to offer you a better browsing experience. Kindly read the Terms of Service & Privacy policy and continue only if you agree.
# Copyrights, wherever applicable: IndianGuitarChords.Blogspot.Com (™ ©) / Arindam Sarkar © - MMVIII - MMXVI