Desi Chords:

0 comment(s) so far...have your say!

Musafir Hoon Yaaron (Parichay : Kishore Kumar) : Tabs


qrcode for - Musafir Hoon Yaaron (Parichay : Kishore Kumar) : TabsSong: Musafir Hoon Yaaron
Artist: Kishore Kumar
From: Parichay (1972)


View:
{ Chords } - { Strum } - { Tabs } - { Lyrics } - { PDF } - { Videos }



Guitar Tabs:
Chorus:
E------------------------------------
A------------------------------------
D---------------------------(10)-----
G--------(10)9---------(10)9----999--
B-788(10)-----78788(10)--------------
e------------------------------------

E------------------------------------
A------------------------------------
D------------------------------------
G-(10)9779-9-9(10)977-7--------------
B------------------------------------
e------------------------------------

Verse:
E------------------------------------
A------------------------------------
D------------------------------------
G------------------------------------
B-888-88-89-(10)p8p6-8s(10)----------
e--------------------------8875h7----X2

E--------------------------------------------
A--------------------------------------------
D------------------------(10)----------------
G---(10)-(10)(10)9-997-77----9(10)s(12)-9779-
B-88-----------------------------------------
e--------------------------------------------


What do these symbols mean? Reading Tabs...
http://desichords.blogspot.com/2009/05/musafir-hoon-yaaron-parichay-kishore.html




Liked 'Musafir Hoon Yaaron (Parichay : Kishore Kumar) : Tabs' enough to share / save?

Musafir Hoon Yaaron (Parichay : Kishore Kumar) : Tabs

Comments: 0 comment(s)...have your say!

DesiChords Tip:

Tune your guitar before you start playing.^Top^


 


# Hosted for free on Blogspot.com / "Powered by Blogger." Get yours today at www.blogger.com
# The material collected and made available through these sites is exclusively intended for private study, research & to provide study material for musicians - in good faith. (Copyrights)
# This site uses cookies to offer you a better browsing experience. Kindly read the Terms of Service & Privacy policy and continue only if you agree.
# Copyrights, wherever applicable: IndianGuitarChords.Blogspot.Com (™ ©) / Arindam Sarkar © - MMVIII - MMXVI