Desi Chords:

0 comment(s) so far...have your say!

Mustafa Mustafa (Rahman) : Tabs


qrcode for - Mustafa Mustafa (Rahman) : TabsSong: Mustafa Mustafa
Artist: A. R. Rahman
From: Kadhal Desam (1996) (Hindi dub: Duniya Dilwalon Ki)


View:
{ Chords } - { Strum } - { Tabs } - { Lyrics } - { PDF } - { Videos }



Guitar Tabs:
Verses 1,4:
E------------------------------
A------------------------------
D-77--------77---------7-------
G----77-------4-4447754--------
B---5--5-754-------------------
e------------------------------X3

Chorus:
E------------------------------------
A------------------------------------
D------------------------------------
G------------------------------------
B-55-66-8-5--------------------------
e------------------------------------X2

Verses 2,3:
E------------------------------------
A------------------------------------
D------------------------------------
G------57-----57---------------------
B-55555--55555--5567665-6666---------
e----------------------5-------------X2


What do these symbols mean? Reading Tabs...
http://desichords.blogspot.com/2009/05/mustafa-mustafa-rahman-3-tabs.html




Liked 'Mustafa Mustafa (Rahman) : Tabs' enough to share / save?

Mustafa Mustafa (Rahman) : Tabs

Comments: 0 comment(s)...have your say!

DesiChords Tip:

Tune your guitar before you start playing.^Top^


 


# Hosted for free on Blogspot.com / "Powered by Blogger." Get yours today at www.blogger.com
# The material collected and made available through these sites is exclusively intended for private study, research & to provide study material for musicians - in good faith. (Copyrights)
# This site uses cookies to offer you a better browsing experience. Kindly read the Terms of Service & Privacy policy and continue only if you agree.
# Copyrights, wherever applicable: IndianGuitarChords.Blogspot.Com (™ ©) / Arindam Sarkar © - MMVIII - MMXVI