Desi Chords:

2 comment(s) so far...have your say!

Musu Musu Hasi (Shaan) : Tabs


qrcode for - Musu Musu Hasi (Shaan) : TabsSong:Musu Musu Hasi
Artist: Shaan
From: Pyaar Mein Kabhi Kabhi (1999)


View:
{ Chords } - { Strum } - { Tabs } - { Lyrics } - { PDF } - { Videos }



Guitar Tabs:
e-------------------------------------------
B-9-9-9-9-9-7--7-7-7-7-------7-7-7-7-9-7----
G-----------------------9----9------------9-
D-------------------------------------------
A-------------------------------------------
E-------------------------------------------

e-------------------------------------------
B-9-9-9-9-9-7--7-7-7-7-------7-7-7-7-9-7---
G----------------------9----9------------9-
D------------------------------------------
A------------------------------------------
E------------------------------------------

e-------------------------------------------
B-12-9--------------------------------------
G-----9-11--13-14-13-11---------------------
D-------------------------------------------
A-------------------------------------------
E-------------------------------------------

e-------------------------------------------
B-------------------------------------------
G-11-9--9-11-9------------------------------
D-----11------------------------------------
A-------------------------------------------
E-------------------------------------------

e-------------------------------------------
B-12-9--------------------------------------
G-----9-11--13-14-13-11---------------------
D-------------------------------------------
A-------------------------------------------
E-------------------------------------------

e-------------------------------------------
B-------------------------------------------
G-11-9--9-11-9------------------------------
D-----11------------------------------------
A-------------------------------------------
E-------------------------------------------

e-------------------------------------------
B-9-9-9-9-9-7--7-7-7-7-------7-7-7-7-9-7----
G----------------------9----9------------9--
D-------------------------------------------
A-------------------------------------------
E-------------------------------------------

e-------------------------------------------
B-9-9-9-9-9-7--7-7-7-7-------7-7-7-7-9-7----
G----------------------9----9------------9--
D-------------------------------------------
A-------------------------------------------
E-------------------------------------------


What do these symbols mean?
Reading Tabs...
http://desichords.blogspot.com/2009/05/musu-musu-hasi-shaan-3-tabs.html




Liked 'Musu Musu Hasi (Shaan) : Tabs' enough to share / save?

Musu Musu Hasi (Shaan) : Tabs

Comments: 2 comment(s)...have your say!

Comellasaid...

Interesant blog.

Arindam Sarkarsaid...

merci beaucoup

DesiChords Tip:

Tune your guitar before you start playing.^Top^


 


# Hosted for free on Blogspot.com / "Powered by Blogger." Get yours today at www.blogger.com
# The material collected and made available through these sites is exclusively intended for private study, research & to provide study material for musicians - in good faith. (Copyrights)
# This site uses cookies to offer you a better browsing experience. Kindly read the Terms of Service & Privacy policy and continue only if you agree.
# Copyrights, wherever applicable: IndianGuitarChords.Blogspot.Com (™ ©) / Arindam Sarkar © - MMVIII - MMXVI