Desi Chords:

0 comment(s) so far...have your say!

Na Jaane Kyon (Chhoti Si Baat) : Tabs


qrcode for - Na Jaane Kyon (Chhoti Si Baat) : TabsSong: Na Jaane Kyon Hota Hai Yeh Zindegi Ke Saath
Artist: Lata Mangeshkar
From: Chhoti Si Baat (1974)


View:
{ Chords } - { Strum } - { Tabs } - { Lyrics } - { PDF } - { Videos }



Guitar Tabs:
Chorus:
E------------------------------------
A-6-----------------66-6----------6--
D------------655-56---3---65-5-653---
G--535-5-6533------3----53----3----3-
B-------4----------------------------
e------------------------------------

E------------------------------------
A------6------6---666---6---6--------
D-5-643--5-643-------666-3-----6-----
G--3----3-3-----3------------35------
B------------------------------------
e------------------------------------

Verse:
E-------------------------------------
A-6-------------6-----------6---6--6--
D--6-6665-565653----65-5-653--5--53---
G----------------533----3----3-3----3-
B-------------------------------------
e-------------------------------------

E------------------------------------
A-666------6--6----------------------
D----5h66-6-3----6-------------------
G--------------53--------------------
B------------------------------------
e------------------------------------


What do these symbols mean? Reading Tabs...
http://desichords.blogspot.com/2009/05/na-jaane-kyon-hota-hai-yeh-zindegi-ke.html




Liked 'Na Jaane Kyon (Chhoti Si Baat) : Tabs' enough to share / save?

Na Jaane Kyon (Chhoti Si Baat) : Tabs

Comments: 0 comment(s)...have your say!

DesiChords Tip:

Tune your guitar before you start playing.^Top^


 


# Hosted for free on Blogspot.com / "Powered by Blogger." Get yours today at www.blogger.com
# The material collected and made available through these sites is exclusively intended for private study, research & to provide study material for musicians - in good faith. (Copyrights)
# This site uses cookies to offer you a better browsing experience. Kindly read the Terms of Service & Privacy policy and continue only if you agree.
# Copyrights, wherever applicable: IndianGuitarChords.Blogspot.Com (™ ©) / Arindam Sarkar © - MMVIII - MMXVI