Desi Chords:

0 comment(s) so far...have your say!

Naam Adaa Likhna (Yahaan) : Tabs


qrcode for - Naam Adaa Likhna (Yahaan) : TabsSong: Naam Adaa Likhna
Artist: Shreya Ghoshal, Shaan
From: Yahaan (2005)


View:
{ Chords } - { Strum } - { Tabs } - { Lyrics } - { PDF } - { Videos }



Guitar Tabs:
Basic Theme:
E------------------------------------
A------------------------------------
D------------------------------------
G------------------------------------
B-------6------6---------------------
e-333353-333353-3333533--------------X2

E------------------------------------
A------------------------------------
D------------------------------------
G-5------------5---------------------
B--3355-3535-53----------------------
e------------------------------------X2

E------------------------------------
A------------------------------------
D------------------------------------
G------------------------------------
B-8--------------8-6-6h8-8-----------
e--5-7h8-77h88-87--------------------X2

E------------------------------------
A------------------------------------
D------------------------------------
G-5------------5---------------------
B--3355-3535-53----------------------
e------------------------------------X2


What do these symbols mean? Reading Tabs...
http://desichords.blogspot.com/2009/05/naam-adaa-likhna-yahaan-3-tabs.html




Liked 'Naam Adaa Likhna (Yahaan) : Tabs' enough to share / save?

Naam Adaa Likhna (Yahaan) : Tabs

Comments: 0 comment(s)...have your say!

DesiChords Tip:

Tune your guitar before you start playing.^Top^


 


# Hosted for free on Blogspot.com / "Powered by Blogger." Get yours today at www.blogger.com
# The material collected and made available through these sites is exclusively intended for private study, research & to provide study material for musicians - in good faith. (Copyrights)
# This site uses cookies to offer you a better browsing experience. Kindly read the Terms of Service & Privacy policy and continue only if you agree.
# Copyrights, wherever applicable: IndianGuitarChords.Blogspot.Com (™ ©) / Arindam Sarkar © - MMVIII - MMXVI