Desi Chords:

0 comment(s) so far...have your say!

O Meri Jaan (Life In A... Metro) : Tabs


qrcode for - O Meri Jaan (Life In A... Metro) : TabsSong: O Meri Jaan
Artist: K.K. (Krishna Kumar)
From: Life In A... Metro


View:
{ Chords } - { Strum } - { Tabs } - { Lyrics } - { PDF } - { Videos }



Guitar Tabs:
E---------5s7------5-5---5---
A-7h9-7975---4455s7---754----
D----------------------------
G----------------------------
B----------------------------
e----------------------------

E----------------------------
A-7h9-99---------------------
D-------55754-4457s975-557---
G-------------------------46-
B----------------------------
e----------------------------

E------------------------------------
A------------------------------------
D-7----------------------------------
G--467-674---------------------------
B-----5------------------------------
e------------------------------------X3


What do these symbols mean? Reading Tabs...
http://desichords.blogspot.com/2009/05/o-meri-jaan-life-in-metro-3-tabs.html




Liked 'O Meri Jaan (Life In A... Metro) : Tabs' enough to share / save?

O Meri Jaan (Life In A... Metro) : Tabs

Comments: 0 comment(s)...have your say!

DesiChords Tip:

Tune your guitar before you start playing.^Top^


 


# Hosted for free on Blogspot.com / "Powered by Blogger." Get yours today at www.blogger.com
# The material collected and made available through these sites is exclusively intended for private study, research & to provide study material for musicians - in good faith. (Copyrights)
# This site uses cookies to offer you a better browsing experience. Kindly read the Terms of Service & Privacy policy and continue only if you agree.
# Copyrights, wherever applicable: IndianGuitarChords.Blogspot.Com (™ ©) / Arindam Sarkar © - MMVIII - MMXVI