Desi Chords:

0 comment(s) so far...have your say!

Om Shanti Om (Karz : Kishore Kumar) : Tabs, Notes


qrcode for - Om Shanti Om (Karz :  Kishore Kumar) : Tabs, NotesSong: Om Shanti Om
Artist: Kishore Kumar
From: Karz (1980)


View: {Chords} - {Strum & Analysis} - {Tabs} - {Plain Lyrics} - {Song & Videos}


Guitar Tabs:
Verse1:
E------------------------------------
A------------------------------------
D-44444-222-0--44444-222-0-----------
G------------------------------------
B------------------------------------
e------------------------------------X3

<----------X2--------->
E-------------------|-----------------------
A-------------------|-----------------------
D------6-6-------6-6|-----------------------
G----43-3------43-3-|--------6-----466-3666-
B-222-----2222------|-7777766-44-44---------
e-------------------|-----------------------

<-------X2-------->
E------------------|-2222-2222-2222-22------
A------------------|------------------------
D------------------|------------------------
G--------66--44-66-|------------------------
B-7744-66--44------|------------------------
e------------------|------------------------

Chorus:
<-------X3--------->
E----------------|-------------------
A----------------|--------6----------
D------------6---|-----664-664-------
G-6666-466-43-33-|-3666--------------
B----------------|-------------------
e----------------|-------------------

Verse 2,3:
E------------------------------------
A------------------------------------
D-------------6689-------------------
G---8---866866----8886---------------
B-77-66------------------------------
e------------------------------------X2

E-------------------------------------
A-----------------------------------9-
D-889-9-9--9866-889-9-9-9866-6-66986--
G----8---6---------8---6------6-------
B-------------------------------------
e-------------------------------------

E--------------------|2222-2222-2222-22-
A--------6-----------|------------------
D-----664-664--------|------------------
G-3666---------------|------------------
B--------------------|------------------
e---------------(X3)-|------------------


Original Scale: F# major


Learn What do these symbols mean: Reading Tabs...
http://desichords.blogspot.com/2009/05/om-shanti-om-karz-kishore-kumar-3-tabs.html




Liked 'Om Shanti Om (Karz : Kishore Kumar) : Tabs, Notes' enough to share / save?

Om Shanti Om (Karz : Kishore Kumar) : Tabs, Notes

Comments: 0 comment(s)...have your say!

DesiChords Tip:

Tune your guitar before you start playing.^Top^


 


# Hosted for free on Blogspot.com / "Powered by Blogger." Get yours today at www.blogger.com
# The material collected and made available through these sites is exclusively intended for private study, research & to provide study material for musicians - in good faith. (Copyrights)
# This site uses cookies to offer you a better browsing experience. Kindly read the Terms of Service & Privacy policy and continue only if you agree.
# Copyrights, wherever applicable: IndianGuitarChords.Blogspot.Com (™ ©) / Arindam Sarkar © - MMVIII - MMXVI