Desi Chords:

0 comment(s) so far...have your say!

Paapa Kehte Hain (Qayamat Se Qayamat Tak / QSQT) : Tabs


qrcode for - Paapa Kehte Hain (Qayamat Se Qayamat Tak / QSQT) : TabsSong: Paapa Kehte Hain
Artist: Udit Narayan
From: Qayamat Se Qayamat Tak a.k.a. QSQT (1988)


View:
{ Chords } - { Strum } - { Tabs } - { Lyrics } - { PDF } - { Videos }



Guitar Tabs:
e--------------------------------------------
B--------------------------------------------
G-11-11--9------9-----------12-11-9----------
D-------------12--------9-12-----------------
A--------------------12----------------------
E--------------------------------------------

e--------------------------------------------
B--------------------------------------------
G-11-11--9------9-----------12-11-9----------
D-------------12--------9-12-----------------
A--------------------12----------------------
E--------------------------------------------

e--------------------------------------------
B--------------------------------------------
G--------------------------------------------
D---------9---12-12-12----12-12-11---9-9-9---
A--12-12-------------------------------------
E--------------------------------------------

e--------------------------------------------
B--------------------------------------------
G--------------------------------------------
D--9-9---------------------------------------
A-------12---10-10-10----9-10-12-------------
E--------------------------------------------

e--------------------------------------------
B--------------------------------------------
G--------------------------------------------
D-----------------9------------------------9-
A-12-12-12---12--12----12-12-12---12--12-----
E--------------------------------------------

e--------------------------------------------
B--------------------------------------------
G-------------------------------------9-11---
D-12-12--11--9-9-9---11-9-11-12--------------
A--------------------------------------------
E--------------------------------------------


What do these symbols mean? Reading Tabs...
http://desichords.blogspot.com/2009/05/paapa-kehte-hain-qayamat-se-qayamat-tak_22.html




Liked 'Paapa Kehte Hain (Qayamat Se Qayamat Tak / QSQT) : Tabs' enough to share / save?

Paapa Kehte Hain (Qayamat Se Qayamat Tak / QSQT) : Tabs

Comments: 0 comment(s)...have your say!

DesiChords Tip:

Tune your guitar before you start playing.^Top^


 


# Hosted for free on Blogspot.com / "Powered by Blogger." Get yours today at www.blogger.com
# The material collected and made available through these sites is exclusively intended for private study, research & to provide study material for musicians - in good faith. (Copyrights)
# This site uses cookies to offer you a better browsing experience. Kindly read the Terms of Service & Privacy policy and continue only if you agree.
# Copyrights, wherever applicable: IndianGuitarChords.Blogspot.Com (™ ©) / Arindam Sarkar © - MMVIII - MMXVI