Desi Chords:

0 comment(s) so far...have your say!

Pal Pal Dil Ke Paas Tum Rehti Ho (Kishore Kumar) : Tabs


qrcode for - Pal Pal Dil Ke Paas Tum Rehti Ho (Kishore Kumar) : TabsSong:Pal Pal Dil Ke Paas Tum Rehti Ho
Artist: Kishore Kumar
From: Black Mail (1973)


View:
{ Chords } - { Strum } - { Tabs } - { Lyrics } - { PDF } - { Videos }



Guitar Tabs:
Chorus:
E------------------------------------
A------------------------------------
D-245---54-244h55---------------75---
G----422---------45-----54-24h54-----
B------------------3-533-------------
e------------------------------------

E------------------------------------
A------------------------------------
D------------------------------------
G-245---54-244h55--------------------
B----422-----------------------------
e------------------------------------

Verse:
E-----------------------------------------------
A-----------------------------------------------
D---------5------------5-5----------------------
G------555---------5555-------------------------
B-353h5----553h55p3---------------6-65334h55p44-
e-------------------------3-335-53--------------X3


What do these symbols mean? Reading Tabs...
http://desichords.blogspot.com/2009/05/pal-pal-dil-ke-paas-tum-rehti-ho.html




Liked 'Pal Pal Dil Ke Paas Tum Rehti Ho (Kishore Kumar) : Tabs' enough to share / save?

Pal Pal Dil Ke Paas Tum Rehti Ho (Kishore Kumar) : Tabs

Comments: 0 comment(s)...have your say!

DesiChords Tip:

Tune your guitar before you start playing.^Top^


 


# Hosted for free on Blogspot.com / "Powered by Blogger." Get yours today at www.blogger.com
# The material collected and made available through these sites is exclusively intended for private study, research & to provide study material for musicians - in good faith. (Copyrights)
# This site uses cookies to offer you a better browsing experience. Kindly read the Terms of Service & Privacy policy and continue only if you agree.
# Copyrights, wherever applicable: IndianGuitarChords.Blogspot.Com (™ ©) / Arindam Sarkar © - MMVIII - MMXVI