Desi Chords:

0 comment(s) so far...have your say!

Purani Jeans Aur Guitar (Ali Haider) : Tabs


qrcode for - Purani Jeans Aur Guitar (Ali Haider) : TabsSong: Purani Jeans Aur Guitar
Artist: Ali Haider
From: Purani Jeans-Remixes (2006)


View:
{ Chords } - { Strum } - { Tabs } - { Lyrics } - { PDF } - { Videos }



Guitar Tabs:
E------------------------------------
A------------------------------------
D------------------------------------
G------------------------------------
B-6-67s9------6-679-----99-96--------
e-------4p6-44-----444-4-------------X2

E------------------------------------
A------------------------------------
D------------------------------------
G------------------------------------
B-9------------9-9-------------------
e--6899-998-66--6--888--8668-8h9-----

E-----------------------------------------------
A-----------------------------------------------
D-----------------------------------------------
G-----------------------------------------------
B--------------------9-9-9--------------------9-
e-6899-9999-99-9(11)9-6---688-8888-88-89(11)86--X2


What do these symbols mean? Reading Tabs...
http://desichords.blogspot.com/2009/05/purani-jeans-aur-guitar-ali-haider-3.html




Liked 'Purani Jeans Aur Guitar (Ali Haider) : Tabs' enough to share / save?

Purani Jeans Aur Guitar (Ali Haider) : Tabs

Comments: 0 comment(s)...have your say!

DesiChords Tip:

Tune your guitar before you start playing.^Top^


 


# Hosted for free on Blogspot.com / "Powered by Blogger." Get yours today at www.blogger.com
# The material collected and made available through these sites is exclusively intended for private study, research & to provide study material for musicians - in good faith. (Copyrights)
# This site uses cookies to offer you a better browsing experience. Kindly read the Terms of Service & Privacy policy and continue only if you agree.
# Copyrights, wherever applicable: IndianGuitarChords.Blogspot.Com (™ ©) / Arindam Sarkar © - MMVIII - MMXVI