Desi Chords:

0 comment(s) so far...have your say!

Pyar Deewana Hota Hai : Tabs


qrcode for - Pyar Deewana Hota Hai : TabsSong: Pyar Deewana Hota Hai
Artist: Kishore Kumar
From: Kati Patang (1970)


View:
{ Chords } - { Strum } - { Tabs } - { Lyrics } - { PDF } - { Videos }



Guitar Tabs:
Chorus:
E------------------------------------
A------------------------------------
D------------------------------------
G----7----7-777----------------------
B-7-7-5575-----757587----------------
e--5---------------------------------

E------------------------------------
A------------------------------------
D------------------------------------
G----7----7-777---777----------------
B-7-7-5575-----755-------------------
e--5---------------------------------

Verse:
E------------------------------------
A------------------------------------
D------------------------------------
G------------------------------------
B-78-78-8--7-8--7---7----------------
e---5--5-55---55-----5-5787-5--------


E------------------------------------
A------------------------------------
D------------------------------------
G------------------------------------
B------------875-55h777s87-----------
e-875875-5575------------------------

Rest, same as chorus.


What do these symbols mean? Reading Tabs...
http://desichords.blogspot.com/2009/05/pyar-deewana-hota-hai-3-tabs.html




Liked 'Pyar Deewana Hota Hai : Tabs' enough to share / save?

Pyar Deewana Hota Hai : Tabs

Comments: 0 comment(s)...have your say!

DesiChords Tip:

Tune your guitar before you start playing.^Top^


 


# Hosted for free on Blogspot.com / "Powered by Blogger." Get yours today at www.blogger.com
# The material collected and made available through these sites is exclusively intended for private study, research & to provide study material for musicians - in good faith. (Copyrights)
# This site uses cookies to offer you a better browsing experience. Kindly read the Terms of Service & Privacy policy and continue only if you agree.
# Copyrights, wherever applicable: IndianGuitarChords.Blogspot.Com (™ ©) / Arindam Sarkar © - MMVIII - MMXVI