Desi Chords:

0 comment(s) so far...have your say!

Pyar Ke Pal (K.K.) : Tabs


qrcode for - Pyar Ke Pal (K.K.) : TabsSong: Pyar Ke Pal
Artist: Krishna Kumar(a.k.a. K.K.)
From: Pal (2000)


View:
{ Chords }  - { Strum }  - { Tabs }  - { Lyrics }  - { PDF }  - { Videos }



Guitar Tabs:
Chorus:
E------------------------------------
A----7-------------------------------
D-464-67---76h7-h77-------7-7s9------
G-------4-4---------4h664------------
B------------------------------------
e------------------------------------

E------------------------------------
A------------------------------------
D-4h667s9-9766h7-h77-------7-7s9-----
G--------------------4h664-----------
B------------------------------------
e------------------------------------

E------------------------------------
A------------------------------------
D----------------7-7---7-------------
G---------4-66-------64-4------------
B-4p54-457----4h5--------------------
e------------------------------------X2

E------------------------------------
A----------------767-----------------
D-4h6-67---77-664--------------------
G-------4-4----------------6---------
B---------------------------4-5------
e------------------------------------

Verse:
E---------------------------|-----------
A---------------------------|-----------
D---------------------------|------7----
G----------------666646-64--|---764-----
B-5544h5-55445s75------4----|-----------
e---------------------------|X2|--------

Back to Chorus


What do these symbols mean? Reading Tabs...
http://desichords.blogspot.com/2009/05/pyar-ke-pal-kk-3-tabs.html




Liked 'Pyar Ke Pal (K.K.) : Tabs' enough to share / save?

Pyar Ke Pal (K.K.) : Tabs

Comments: 0 comment(s)...have your say!

DesiChords Tip:

Tune your guitar before you start playing.^Top^


 


# Hosted for free on Blogspot.com / "Powered by Blogger." Get yours today at www.blogger.com
# The material collected and made available through these sites is exclusively intended for private study, research & to provide study material for musicians - in good faith. (Copyrights)
# This site uses cookies to offer you a better browsing experience. Kindly read the Terms of Service & Privacy policy and continue only if you agree.
# Copyrights, wherever applicable: IndianGuitarChords.Blogspot.Com (™ ©) / Arindam Sarkar © - MMVIII - MMXVI