Desi Chords:

0 comment(s) so far...have your say!

Rishtey To Nahi (Life in a...Metro) : Tabs


qrcode for - Rishtey To Nahi (Life in a...Metro) : TabsSong: Rishtey
Artist: James
From: Life in a...Metro (2007)


View:
{ Chords } - { Strum } - { Tabs } - { Lyrics } - { PDF } - { Videos }



Guitar Tabs:
Verse 1:
E-----------------------------------
A-----------------------------------
D----------66--------5--------------
G------5--5----554545---------------
B-434-3-3---------------------------
e-----------------------------------X2

Chorus:
E------------------------------------
A------------------------------------
D------------------------------------
G------5-7-8p5------5-7-8p5----------
B-44-44--------44-44-----------------
e------------------------------------

E------------------------------------
A------------------------------------
D------------------------------------
G-----------------------5------------
B-44-444-4-6-8s6---6s8-4-------------
e---------------3-6------------------

Verse 2:
E----------------------------------------
A----------------------------------------
D----------------------------------------
G------------5-4h555-5----55-777-7-777---
B-44-64-4-6p4---------34----4---4----643-
e---3----3-------------------------------X2

E------------------------------------
A------------------------------------
D-----------------5------------------
G-5--------55-4545-------------------
B--4-4-6444--------------------------
e---3--------------------------------


What do these symbols mean? Reading Tabs...
http://desichords.blogspot.com/2009/05/rishtey-to-nahi-life-in-ametro-3-tabs.html




Liked 'Rishtey To Nahi (Life in a...Metro) : Tabs' enough to share / save?

Rishtey To Nahi (Life in a...Metro) : Tabs

Comments: 0 comment(s)...have your say!

DesiChords Tip:

Tune your guitar before you start playing.^Top^


 


# Hosted for free on Blogspot.com / "Powered by Blogger." Get yours today at www.blogger.com
# The material collected and made available through these sites is exclusively intended for private study, research & to provide study material for musicians - in good faith. (Copyrights)
# This site uses cookies to offer you a better browsing experience. Kindly read the Terms of Service & Privacy policy and continue only if you agree.
# Copyrights, wherever applicable: IndianGuitarChords.Blogspot.Com (™ ©) / Arindam Sarkar © - MMVIII - MMXVI