Desi Chords:

0 comment(s) so far...have your say!

Roja Jaaneman (Roja) : Tabs


qrcode for - Roja Jaaneman (Roja) : TabsSong: Roja Jaaneman
Artist: S. P. Balasubrahmanyam, Chitra
From: Roja (1992)


View:
{ Chords } - { Strum } - { Tabs } - { Lyrics } - { PDF } - { Videos }



Guitar Tabs:
e--------------------------------------------------------------
B--------------------------------------------------------------
G--------------------------------------------6-----------------
D-------------------------------------6--6h7--9-7-5-4----------
A-7-10-9h10-7-6---7-10-9h10-7-6---7--7-------------------------
E--------------------------------------------------------------

Aankhon mein....
e--------------------------------------------------------------
B--------------------------------------------------------------
G--------------------------------------------------12~-10h12---
D-6-6-7-7p5-4---6-6-7-7p5-4------------7h9-10p9----------------
A-------------------------------7h9-10p9-----------------------
E--------------------------------------------------------------


What do these symbols mean? Reading Tabs...
http://desichords.blogspot.com/2009/05/roja-jaaneman-roja-3-tabs.html




Liked 'Roja Jaaneman (Roja) : Tabs' enough to share / save?

Roja Jaaneman (Roja) : Tabs

Comments: 0 comment(s)...have your say!

DesiChords Tip:

Tune your guitar before you start playing.^Top^


 


# Hosted for free on Blogspot.com / "Powered by Blogger." Get yours today at www.blogger.com
# The material collected and made available through these sites is exclusively intended for private study, research & to provide study material for musicians - in good faith. (Copyrights)
# This site uses cookies to offer you a better browsing experience. Kindly read the Terms of Service & Privacy policy and continue only if you agree.
# Copyrights, wherever applicable: IndianGuitarChords.Blogspot.Com (™ ©) / Arindam Sarkar © - MMVIII - MMXVI