Desi Chords:

0 comment(s) so far...have your say!

Rooth Na Jaana (1942: A Love Story, R D Burman) : Tabs


qrcode for - Rooth Na Jaana (1942: A Love Story, R D Burman) : TabsSong: Rooth Na Jaana
Artist:Kumar Sanu
From: 1942: A Love Story (1993)


View:
{ Chords } - { Strum } - { Tabs } - { Lyrics } - { PDF } - { Videos }



Guitar Tabs:
Verse 1:
E------------------------------------
A------------------------------------
D------------------------------------
G-7--------76-7--7-------------7-----
B--7-88-575----7--7-88-575-76-5------
e---5--------------5-----------------

<--X6-->
E------|-----------------------------
A------|-----------------------------
D------|-----------------------------
G-7----|--------7--------------------
B--7-7-|--77-55----------------------
e---5--|-----------------------------

E------------------------------------
A------------------------------------
D------------------------------------
G-7--------76-7--7-------------7-----
B--7-88-575----7--7-88-575-76-5------
e---5--------------5-----------------

Verses 2,3:
E------------------------------------
A------------------------------------
D------------------------------------
G-7----------------------------------
B--5-88-----8--8------8755-58757-----
e------5555--57-5-5775---------------X2

E------|-----------------------------
A------|-----------------------------
D------|-----------------------------
G-7----|--------7--------------------
B--7-7-|--77-55----------------------
e---5--|-----------------------------

E------------------------------------
A------------------------------------
D------------------------------------
G-7--------76-7--7-------------7-----
B--7-88-575----7--7-88-575-76-5------
e---5--------------5-----------------


What do these symbols mean? Reading Tabs...
http://desichords.blogspot.com/2009/05/rooth-na-jaana-1942-love-story-r-d.html




Liked 'Rooth Na Jaana (1942: A Love Story, R D Burman) : Tabs' enough to share / save?

Rooth Na Jaana (1942: A Love Story, R D Burman) : Tabs

Comments: 0 comment(s)...have your say!

DesiChords Tip:

Tune your guitar before you start playing.^Top^


 


# Hosted for free on Blogspot.com / "Powered by Blogger." Get yours today at www.blogger.com
# The material collected and made available through these sites is exclusively intended for private study, research & to provide study material for musicians - in good faith. (Copyrights)
# This site uses cookies to offer you a better browsing experience. Kindly read the Terms of Service & Privacy policy and continue only if you agree.
# Copyrights, wherever applicable: IndianGuitarChords.Blogspot.Com (™ ©) / Arindam Sarkar © - MMVIII - MMXVI