Desi Chords:

0 comment(s) so far...have your say!

Saagar Kinare Dil Yeh Pukare (Saagar) : Tabs


qrcode for - Saagar Kinare Dil Yeh Pukare (Saagar) : TabsSong:Saagar Kinare, Dil Yeh Pukare
Artist:Lata Mangeshkar & Kishore Kumar / R. D. Burman
From:Saagar (1985)


View:
{ Chords } - { Strum } - { Tabs } - { Lyrics } - { PDF } - { Videos }



Guitar Tabs:
Chorus:
E------------------------------------------
A------------------------------------------
D------------------------------------------
G-43134---------------4334-----------4-431-
B------2h4-454244h5-42----5542-2454-2------
e------------------------------------------

Verses:
<----------X2---------->
E----------------------|------------------------
A----------------------|------------------------
D----------------------|------------------------
G----------------------|------------------------
B-45-----------5-------|----------77---57-45452-
e---42h4-4s2s0--2h4222-|-4575h7-54--454---------


What do these symbols mean?
Reading Tabs...
http://desichords.blogspot.com/2009/05/saagar-kinare-dil-yeh-pukare-saagar-3.html




Liked 'Saagar Kinare Dil Yeh Pukare (Saagar) : Tabs' enough to share / save?

Saagar Kinare Dil Yeh Pukare (Saagar) : Tabs

Comments: 0 comment(s)...have your say!

DesiChords Tip:

Tune your guitar before you start playing.^Top^


 


# Hosted for free on Blogspot.com / "Powered by Blogger." Get yours today at www.blogger.com
# The material collected and made available through these sites is exclusively intended for private study, research & to provide study material for musicians - in good faith. (Copyrights)
# This site uses cookies to offer you a better browsing experience. Kindly read the Terms of Service & Privacy policy and continue only if you agree.
# Copyrights, wherever applicable: IndianGuitarChords.Blogspot.Com (™ ©) / Arindam Sarkar © - MMVIII - MMXVI