Desi Chords:

0 comment(s) so far...have your say!

Sach Mere Yaar Hai (Saagar) : Tabs


qrcode for - Sach Mere Yaar Hai (Saagar) : TabsSong:Sach Mere Yaar Hai
Artist:S. P. Balasubramaniam / R. D. Burman
From:Saagar (1985)


View:
{ Chords } - { Strum } - { Tabs } - { Lyrics } - { PDF } - { Videos }



Guitar Tabs:
Part 1:
e-------------------7-7-------------
B-----7-----------------------------
G--9----9--8--9---------------------

e-------------------7-7-------------
B-----7-----------------------------
G--9----9--8--9---------------------

e-9-11-12-11-9-7-9-7----------------
B-------------------10-9--10--9--7--

e---------------7-7-----------------
b-7-9-7--------------7-9-7----------
G---------9-9------------------9-9--

e--7--7-----------------------------
B--------7-9------------------------
G---------------8-9-----------------

Part 2:
e-------9-11-12-------9--14--11---12-
b-12---------------------------------

e-9-12-9-11-9-11-9-11-9-9------------
B-------------------------12--12-----

e-------9-11-12------9--14--11---12--
b-12---------------------------------

e-9-12-9-11-9-11-9-11-9-9------------
B-------------------------12-----12--

e-9-11-12--11-9--7-9-7---------------
B----------------------10-9-10-9-7---

e----------------7-7-----------------
B--7-9-7---------------7-9-7---------
G----------9-9------------------9-9--

e--7--7------------------------------
B--------7-9-------------------------
G---------------8-9------------------


What do these symbols mean? Reading Tabs...
http://desichords.blogspot.com/2009/05/sach-mere-yaar-hai-saagar-3-tabs.html




Liked 'Sach Mere Yaar Hai (Saagar) : Tabs' enough to share / save?

Sach Mere Yaar Hai (Saagar) : Tabs

Comments: 0 comment(s)...have your say!

DesiChords Tip:

Tune your guitar before you start playing.^Top^


 


# Hosted for free on Blogspot.com / "Powered by Blogger." Get yours today at www.blogger.com
# The material collected and made available through these sites is exclusively intended for private study, research & to provide study material for musicians - in good faith. (Copyrights)
# This site uses cookies to offer you a better browsing experience. Kindly read the Terms of Service & Privacy policy and continue only if you agree.
# Copyrights, wherever applicable: IndianGuitarChords.Blogspot.Com (™ ©) / Arindam Sarkar © - MMVIII - MMXVI