Desi Chords:

0 comment(s) so far...have your say!

Tera Mujhse Hai Pehle Ka Naata Koi : Tabs


qrcode for - Tera Mujhse Hai Pehle Ka Naata Koi : TabsSong: Tera Mujhse Hai Pehle Ka Naata Koi
Artist:Sushma Shrestha
From: Aaa Gale Lag Ja (1973)


View:
{ Chords } - { Strum } - { Tabs } - { Lyrics } - { PDF } - { Videos }



Guitar Tabs:
E------------------------------------
A---5---------------------55---------
D-55-5-5-55-55----5---------775------
G-------2-----22h4-4h5-542-----------
B------------------------------------
e------------------------------------X4


E------------------------------------
A------------------------------------
D------------7s9------------7s9------
G-444h5-5s754----444h5-5s754---------
B------------------------------------
e------------------------------------


What do these symbols mean? Reading Tabs...
http://desichords.blogspot.com/2009/05/tera-mujhse-hai-pehle-ka-naata-koi-3.html




Liked 'Tera Mujhse Hai Pehle Ka Naata Koi : Tabs' enough to share / save?

Tera Mujhse Hai Pehle Ka Naata Koi : Tabs

Comments: 0 comment(s)...have your say!

DesiChords Tip:

Tune your guitar before you start playing.^Top^


 


# Hosted for free on Blogspot.com / "Powered by Blogger." Get yours today at www.blogger.com
# The material collected and made available through these sites is exclusively intended for private study, research & to provide study material for musicians - in good faith. (Copyrights)
# This site uses cookies to offer you a better browsing experience. Kindly read the Terms of Service & Privacy policy and continue only if you agree.
# Copyrights, wherever applicable: IndianGuitarChords.Blogspot.Com (™ ©) / Arindam Sarkar © - MMVIII - MMXVI